  999
DXF created by TopoDroid v. 4.0.1a
  0
SECTION
  2
HEADER
  9
$ACADVER
  1
AC1009
  9
$INSBASE
  10
0.00
  20
0.00
  30
0.00
  9
$EXTMIN
  10
-2.00
  20
-2.00
  30
0.00
  9
$EXTMAX
  10
2.00
  20
2.00
  30
0.00
  0
ENDSEC
  0
SECTION
  2
TABLES
  0
TABLE
  2
LTYPE
  70
2
  0
LTYPE
  2
Continuous
  70
64
  3
Solid line
  72
65
  73
0
  40
0.0
  0
ENDTAB
  0
TABLE
  2
LAYER
  70
37
  0
LAYER
  2
LEG
  70
0
  62
1
  6
Continuous
  0
LAYER
  2
SPLAY
  70
0
  62
2
  6
Continuous
  0
LAYER
  2
STATION
  70
0
  62
3
  6
Continuous
  0
LAYER
  2
LINE
  70
0
  62
4
  6
Continuous
  0
LAYER
  2
POINT
  70
0
  62
5
  6
Continuous
  0
LAYER
  2
AREA
  70
0
  62
6
  6
Continuous
  0
LAYER
  2
REF
  70
0
  62
7
  6
Continuous
  0
LAYER
  2
L_u-user
  70
0
  62
10
  6
Continuous
  0
LAYER
  2
L_wall
  70
0
  62
11
  6
Continuous
  0
LAYER
  2
L_arrow
  70
0
  62
12
  6
Continuous
  0
LAYER
  2
L_border
  70
0
  62
13
  6
Continuous
  0
LAYER
  2
L_ceiling-meander
  70
0
  62
14
  6
Continuous
  0
LAYER
  2
L_chimney
  70
0
  62
15
  6
Continuous
  0
LAYER
  2
L_contour
  70
0
  62
16
  6
Continuous
  0
LAYER
  2
L_u-fault
  70
0
  62
17
  6
Continuous
  0
LAYER
  2
L_floor-meander
  70
0
  62
18
  6
Continuous
  0
LAYER
  2
L_overhang
  70
0
  62
19
  6
Continuous
  0
LAYER
  2
L_pit
  70
0
  62
20
  6
Continuous
  0
LAYER
  2
L_wall-presumed
  70
0
  62
21
  6
Continuous
  0
LAYER
  2
L_rock-border
  70
0
  62
22
  6
Continuous
  0
LAYER
  2
L_section
  70
0
  62
23
  6
Continuous
  0
LAYER
  2
L_slope
  70
0
  62
24
  6
Continuous
  0
LAYER
  2
L_wall-blocks
  70
0
  62
25
  6
Continuous
  0
LAYER
  2
L_wall-clay
  70
0
  62
26
  6
Continuous
  0
LAYER
  2
L_wall-debris
  70
0
  62
27
  6
Continuous
  0
LAYER
  2
L_wall-ice
  70
0
  62
28
  6
Continuous
  0
LAYER
  2
L_wall-sand
  70
0
  62
29
  6
Continuous
  0
LAYER
  2
L_water-flow
  70
0
  62
30
  6
Continuous
  0
LAYER
  2
A_u-user
  70
0
  62
60
  6
Continuous
  0
LAYER
  2
A_water
  70
0
  62
61
  6
Continuous
  0
LAYER
  2
A_blocks
  70
0
  62
62
  6
Continuous
  0
LAYER
  2
A_clay
  70
0
  62
63
  6
Continuous
  0
LAYER
  2
A_debris
  70
0
  62
64
  6
Continuous
  0
LAYER
  2
A_ice
  70
0
  62
65
  6
Continuous
  0
LAYER
  2
A_pebbles
  70
0
  62
66
  6
Continuous
  0
LAYER
  2
A_sand
  70
0
  62
67
  6
Continuous
  0
LAYER
  2
A_snow
  70
0
  62
68
  6
Continuous
  0
ENDTAB
  0
TABLE
  2
VIEW
  70
0
  0
ENDTAB
  0
TABLE
  2
UCS
  70
0
  0
ENDTAB
  0
TABLE
  2
APPID
  70
1
  0
APPID
  2
ACAD
  70
0
  0
ENDTAB
  0
ENDSEC
  0
SECTION
  2
BLOCKS
  0
BLOCK
  8
POINT
  2
P_u-user
  70
0
  10
0
  20
0
  30
0
  0
CIRCLE
  8
POINT
  10
0.00
  20
-0.00
  30
0.00
  40
0.30
  0
ENDBLK
  0
BLOCK
  8
POINT
  2
P_label
  70
0
  10
0
  20
0
  30
0
  0
LINE
  8
POINT
  10
0.00
  20
-0.15
  30
0.00
  11
0.00
  21
0.30
  31
0.00
  0
LINE
  8
POINT
  10
0.00
  20
0.30
  30
0.00
  11
-0.15
  21
0.30
  31
0.00
  0
LINE
  8
POINT
  10
-0.15
  20
0.30
  30
0.00
  11
0.15
  21
0.30
  31
0.00
  0
ENDBLK
  0
BLOCK
  8
POINT
  2
P_air-draught
  70
0
  10
0
  20
0
  30
0
  0
LINE
  8
POINT
  10
-0.20
  20
-0.35
  30
0.00
  11
0.00
  21
-0.15
  31
0.00
  0
LINE
  8
POINT
  10
0.00
  20
-0.15
  30
0.00
  11
0.00
  21
0.50
  31
0.00
  0
LINE
  8
POINT
  10
0.00
  20
0.50
  30
0.00
  11
0.20
  21
0.30
  31
0.00
  0
LINE
  8
POINT
  10
0.00
  20
0.50
  30
0.00
  11
-0.20
  21
0.30
  31
0.00
  0
LINE
  8
POINT
  10
-0.20
  20
-0.20
  30
0.00
  11
0.00
  21
-0.00
  31
0.00
  0
ENDBLK
  0
BLOCK
  8
POINT
  2
P_anchor
  70
0
  10
0
  20
0
  30
0
  0
LINE
  8
POINT
  10
0.25
  20
-0.00
  30
0.00
  11
-0.25
  21
-0.00
  31
0.00
  0
CIRCLE
  8
POINT
  10
0.00
  20
-0.00
  30
0.00
  40
0.25
  0
ENDBLK
  0
BLOCK
  8
POINT
  2
P_aragonite
  70
0
  10
0
  20
0
  30
0
  0
LINE
  8
POINT
  10
0.00
  20
0.25
  30
0.00
  11
0.00
  21
-0.35
  31
0.00
  0
LINE
  8
POINT
  10
-0.10
  20
0.35
  30
0.00
  11
0.00
  21
0.25
  31
0.00
  0
LINE
  8
POINT
  10
0.00
  20
0.25
  30
0.00
  11
0.10
  21
0.35
  31
0.00
  0
LINE
  8
POINT
  10
-0.15
  20
0.20
  30
0.00
  11
0.00
  21
0.05
  31
0.00
  0
LINE
  8
POINT
  10
0.00
  20
0.05
  30
0.00
  11
0.15
  21
0.20
  31
0.00
  0
ENDBLK
  0
BLOCK
  8
POINT
  2
P_archeo-material
  70
0
  10
0
  20
0
  30
0
  0
LINE
  8
POINT
  10
-0.17
  20
-0.17
  30
0.00
  11
0.00
  21
-0.00
  31
0.00
  0
LINE
  8
POINT
  10
-0.17
  20
0.17
  30
0.00
  11
0.00
  21
-0.00
  31
0.00
  0
LINE
  8
POINT
  10
0.00
  20
-0.00
  30
0.00
  11
0.25
  21
-0.00
  31
0.00
  0
CIRCLE
  8
POINT
  10
0.00
  20
-0.00
  30
0.00
  40
0.25
  0
ENDBLK
  0
BLOCK
  8
POINT
  2
P_blocks
  70
0
  10
0
  20
0
  30
0
  0
LINE
  8
POINT
  10
-0.35
  20
-0.20
  30
0.00
  11
0.40
  21
-0.25
  31
0.00
  0
LINE
  8
POINT
  10
0.40
  20
-0.25
  30
0.00
  11
0.35
  21
0.25
  31
0.00
  0
LINE
  8
POINT
  10
0.35
  20
0.25
  30
0.00
  11
-0.25
  21
0.30
  31
0.00
  0
LINE
  8
POINT
  10
-0.25
  20
0.30
  30
0.00
  11
-0.35
  21
0.20
  31
0.00
  0
LINE
  8
POINT
  10
-0.35
  20
0.20
  30
0.00
  11
-0.35
  21
-0.20
  31
0.00
  0
LINE
  8
POINT
  10
-0.35
  20
-0.20
  30
0.00
  11
-0.30
  21
-0.10
  31
0.00
  0
LINE
  8
POINT
  10
-0.30
  20
-0.10
  30
0.00
  11
-0.25
  21
0.10
  31
0.00
  0
LINE
  8
POINT
  10
-0.25
  20
0.10
  30
0.00
  11
-0.20
  21
0.20
  31
0.00
  0
LINE
  8
POINT
  10
-0.20
  20
0.20
  30
0.00
  11
0.25
  21
0.15
  31
0.00
  0
LINE
  8
POINT
  10
0.25
  20
0.15
  30
0.00
  11
0.35
  21
0.25
  31
0.00
  0
LINE
  8
POINT
  10
-0.20
  20
0.20
  30
0.00
  11
-0.25
  21
0.30
  31
0.00
  0
ENDBLK
  0
BLOCK
  8
POINT
  2
P_breakdown-choke
  70
0
  10
0
  20
0
  30
0
  0
LINE
  8
POINT
  10
-0.20
  20
-0.20
  30
0.00
  11
0.20
  21
0.20
  31
0.00
  0
LINE
  8
POINT
  10
-0.20
  20
0.20
  30
0.00
  11
0.20
  21
-0.20
  31
0.00
  0
ENDBLK
  0
BLOCK
  8
POINT
  2
P_cave-pearl
  70
0
  10
0
  20
0
  30
0
  0
CIRCLE
  8
POINT
  10
-0.20
  20
-0.05
  30
0.00
  40
0.10
  0
CIRCLE
  8
POINT
  10
0.20
  20
0.05
  30
0.00
  40
0.10
  0
ENDBLK
  0
BLOCK
  8
POINT
  2
P_clay
  70
0
  10
0
  20
0
  30
0
  0
ARC
  8
POINT
  10
-0.15
  20
-0.00
  30
0.00
  40
0.15
  100
AcDbArc
  50
90.00
  51
180.00
  0
ARC
  8
POINT
  10
-0.15
  20
-0.00
  30
0.00
  40
0.15
  100
AcDbArc
  50
0.00
  51
90.00
  0
ARC
  8
POINT
  10
0.15
  20
-0.00
  30
0.00
  40
0.15
  100
AcDbArc
  50
180.00
  51
270.00
  0
ARC
  8
POINT
  10
0.15
  20
-0.00
  30
0.00
  40
0.15
  100
AcDbArc
  50
270.00
  51
360.00
  0
ENDBLK
  0
BLOCK
  8
POINT
  2
P_continuation
  70
0
  10
0
  20
0
  30
0
  0
LINE
  8
POINT
  10
0.00
  20
-0.15
  30
0.00
  11
0.00
  21
-0.00
  31
0.00
  0
ARC
  8
POINT
  10
0.10
  20
-0.00
  30
0.00
  40
0.10
  100
AcDbArc
  50
90.00
  51
180.00
  0
ARC
  8
POINT
  10
0.00
  20
0.15
  30
0.00
  40
0.10
  100
AcDbArc
  50
0.00
  51
90.00
  0
ARC
  8
POINT
  10
-0.15
  20
0.30
  30
0.00
  40
0.15
  100
AcDbArc
  50
270.00
  51
360.00
  0
LINE
  8
POINT
  10
0.00
  20
-0.35
  30
0.00
  11
0.00
  21
-0.25
  31
0.00
  0
ENDBLK
  0
BLOCK
  8
POINT
  2
P_crystal
  70
0
  10
0
  20
0
  30
0
  0
LINE
  8
POINT
  10
-0.25
  20
-0.00
  30
0.00
  11
0.25
  21
-0.00
  31
0.00
  0
LINE
  8
POINT
  10
0.00
  20
0.25
  30
0.00
  11
0.00
  21
-0.25
  31
0.00
  0
LINE
  8
POINT
  10
0.00
  20
-0.25
  30
0.00
  11
0.25
  21
-0.00
  31
0.00
  0
LINE
  8
POINT
  10
0.25
  20
-0.00
  30
0.00
  11
0.00
  21
0.25
  31
0.00
  0
LINE
  8
POINT
  10
0.00
  20
0.25
  30
0.00
  11
-0.25
  21
-0.00
  31
0.00
  0
LINE
  8
POINT
  10
-0.25
  20
-0.00
  30
0.00
  11
0.00
  21
-0.25
  31
0.00
  0
ENDBLK
  0
BLOCK
  8
POINT
  2
P_curtain
  70
0
  10
0
  20
0
  30
0
  0
LINE
  8
POINT
  10
-0.20
  20
0.20
  30
0.00
  11
0.00
  21
-0.00
  31
0.00
  0
LINE
  8
POINT
  10
0.00
  20
-0.00
  30
0.00
  11
0.20
  21
0.20
  31
0.00
  0
LINE
  8
POINT
  10
0.00
  20
-0.00
  30
0.00
  11
0.00
  21
-0.10
  31
0.00
  0
ARC
  8
POINT
  10
0.00
  20
-0.20
  30
0.00
  40
0.10
  100
AcDbArc
  50
90.00
  51
180.00
  0
ARC
  8
POINT
  10
0.00
  20
-0.20
  30
0.00
  40
0.10
  100
AcDbArc
  50
180.00
  51
270.00
  0
LINE
  8
POINT
  10
0.00
  20
-0.30
  30
0.00
  11
0.00
  21
-0.40
  31
0.00
  0
ENDBLK
  0
BLOCK
  8
POINT
  2
P_u-danger
  70
0
  10
0
  20
0
  30
0
  0
LINE
  8
POINT
  10
0.00
  20
-0.00
  30
0.00
  11
0.10
  21
0.40
  31
0.00
  0
LINE
  8
POINT
  10
0.10
  20
0.40
  30
0.00
  11
-0.10
  21
0.40
  31
0.00
  0
LINE
  8
POINT
  10
-0.10
  20
0.40
  30
0.00
  11
0.00
  21
-0.00
  31
0.00
  0
CIRCLE
  8
POINT
  10
0.00
  20
-0.20
  30
0.00
  40
0.10
  0
ENDBLK
  0
BLOCK
  8
POINT
  2
P_debris
  70
0
  10
0
  20
0
  30
0
  0
LINE
  8
POINT
  10
0.00
  20
-0.00
  30
0.00
  11
0.20
  21
-0.05
  31
0.00
  0
LINE
  8
POINT
  10
0.20
  20
-0.05
  30
0.00
  11
0.10
  21
0.15
  31
0.00
  0
LINE
  8
POINT
  10
0.10
  20
0.15
  30
0.00
  11
0.00
  21
-0.00
  31
0.00
  0
LINE
  8
POINT
  10
0.00
  20
-0.00
  30
0.00
  11
-0.20
  21
-0.00
  31
0.00
  0
LINE
  8
POINT
  10
-0.20
  20
-0.00
  30
0.00
  11
-0.10
  21
0.20
  31
0.00
  0
LINE
  8
POINT
  10
-0.10
  20
0.20
  30
0.00
  11
0.00
  21
-0.00
  31
0.00
  0
ENDBLK
  0
BLOCK
  8
POINT
  2
P_dig
  70
0
  10
0
  20
0
  30
0
  0
LINE
  8
POINT
  10
-0.25
  20
0.10
  30
0.00
  11
-0.05
  21
0.30
  31
0.00
  0
LINE
  8
POINT
  10
-0.15
  20
0.20
  30
0.00
  11
0.20
  21
-0.15
  31
0.00
  0
LINE
  8
POINT
  10
0.25
  20
0.10
  30
0.00
  11
0.05
  21
0.30
  31
0.00
  0
LINE
  8
POINT
  10
0.15
  20
0.20
  30
0.00
  11
-0.20
  21
-0.15
  31
0.00
  0
ENDBLK
  0
BLOCK
  8
POINT
  2
P_disk
  70
0
  10
0
  20
0
  30
0
  0
CIRCLE
  8
POINT
  10
0.00
  20
0.15
  30
0.00
  40
0.15
  0
LINE
  8
POINT
  10
-0.10
  20
-0.15
  30
0.00
  11
0.00
  21
-0.00
  31
0.00
  0
LINE
  8
POINT
  10
0.00
  20
-0.00
  30
0.00
  11
0.10
  21
-0.15
  31
0.00
  0
ENDBLK
  0
BLOCK
  8
POINT
  2
P_entrance
  70
0
  10
0
  20
0
  30
0
  0
LINE
  8
POINT
  10
0.00
  20
0.30
  30
0.00
  11
-0.15
  21
-0.15
  31
0.00
  0
LINE
  8
POINT
  10
-0.15
  20
-0.15
  30
0.00
  11
0.15
  21
-0.15
  31
0.00
  0
LINE
  8
POINT
  10
0.15
  20
-0.15
  30
0.00
  11
0.00
  21
0.30
  31
0.00
  0
ENDBLK
  0
BLOCK
  8
POINT
  2
P_flowstone
  70
0
  10
0
  20
0
  30
0
  0
LINE
  8
POINT
  10
-0.30
  20
0.10
  30
0.00
  11
-0.05
  21
0.10
  31
0.00
  0
LINE
  8
POINT
  10
0.10
  20
0.10
  30
0.00
  11
0.35
  21
0.10
  31
0.00
  0
LINE
  8
POINT
  10
-0.15
  20
-0.10
  30
0.00
  11
0.15
  21
-0.10
  31
0.00
  0
ENDBLK
  0
BLOCK
  8
POINT
  2
P_flute
  70
0
  10
0
  20
0
  30
0
  0
LINE
  8
POINT
  10
-0.30
  20
-0.00
  30
0.00
  11
0.30
  21
-0.00
  31
0.00
  0
ARC
  8
POINT
  10
0.00
  20
-0.00
  30
0.00
  40
0.15
  100
AcDbArc
  50
90.00
  51
180.00
  0
ARC
  8
POINT
  10
0.00
  20
-0.00
  30
0.00
  40
0.15
  100
AcDbArc
  50
0.00
  51
90.00
  0
ENDBLK
  0
BLOCK
  8
POINT
  2
P_rimstone-pool
  70
0
  10
0
  20
0
  30
0
  0
ARC
  8
POINT
  10
-0.20
  20
-0.00
  30
0.00
  40
0.00
  100
AcDbArc
  50
0.00
  51
180.00
  0
ARC
  8
POINT
  10
0.20
  20
-0.00
  30
0.00
  40
0.40
  100
AcDbArc
  50
0.00
  51
180.00
  0
ENDBLK
  0
BLOCK
  8
POINT
  2
P_gradient
  70
0
  10
0
  20
0
  30
0
  0
LINE
  8
POINT
  10
0.00
  20
-0.40
  30
0.00
  11
0.00
  21
0.20
  31
0.00
  0
LINE
  8
POINT
  10
0.00
  20
0.20
  30
0.00
  11
-0.10
  21
0.10
  31
0.00
  0
LINE
  8
POINT
  10
-0.10
  20
0.10
  30
0.00
  11
0.10
  21
0.10
  31
0.00
  0
LINE
  8
POINT
  10
0.10
  20
0.10
  30
0.00
  11
0.00
  21
0.20
  31
0.00
  0
ENDBLK
  0
BLOCK
  8
POINT
  2
P_guano
  70
0
  10
0
  20
0
  30
0
  0
ARC
  8
POINT
  10
-0.12
  20
-0.00
  30
0.00
  40
0.12
  100
AcDbArc
  50
0.00
  51
180.00
  0
LINE
  8
POINT
  10
0.00
  20
-0.00
  30
0.00
  11
0.00
  21
-0.30
  31
0.00
  0
ARC
  8
POINT
  10
0.12
  20
-0.00
  30
0.00
  40
0.12
  100
AcDbArc
  50
0.00
  51
180.00
  0
ENDBLK
  0
BLOCK
  8
POINT
  2
P_gypsum
  70
0
  10
0
  20
0
  30
0
  0
LINE
  8
POINT
  10
-0.25
  20
-0.00
  30
0.00
  11
0.00
  21
0.25
  31
0.00
  0
LINE
  8
POINT
  10
0.00
  20
0.25
  30
0.00
  11
0.00
  21
-0.25
  31
0.00
  0
LINE
  8
POINT
  10
0.00
  20
-0.25
  30
0.00
  11
0.25
  21
-0.00
  31
0.00
  0
LINE
  8
POINT
  10
0.25
  20
-0.00
  30
0.00
  11
-0.25
  21
-0.00
  31
0.00
  0
ENDBLK
  0
BLOCK
  8
POINT
  2
P_helictite
  70
0
  10
0
  20
0
  30
0
  0
LINE
  8
POINT
  10
0.00
  20
0.35
  30
0.00
  11
0.00
  21
-0.35
  31
0.00
  0
LINE
  8
POINT
  10
-0.15
  20
0.25
  30
0.00
  11
-0.15
  21
-0.00
  31
0.00
  0
LINE
  8
POINT
  10
-0.15
  20
-0.00
  30
0.00
  11
0.15
  21
-0.00
  31
0.00
  0
LINE
  8
POINT
  10
0.15
  20
-0.00
  30
0.00
  11
0.15
  21
-0.25
  31
0.00
  0
ENDBLK
  0
BLOCK
  8
POINT
  2
P_ice
  70
0
  10
0
  20
0
  30
0
  0
LINE
  8
POINT
  10
-0.25
  20
-0.00
  30
0.00
  11
0.25
  21
-0.00
  31
0.00
  0
LINE
  8
POINT
  10
0.00
  20
0.25
  30
0.00
  11
0.00
  21
-0.25
  31
0.00
  0
ENDBLK
  0
BLOCK
  8
POINT
  2
P_low-end
  70
0
  10
0
  20
0
  30
0
  0
LINE
  8
POINT
  10
-0.30
  20
0.10
  30
0.00
  11
0.30
  21
0.10
  31
0.00
  0
LINE
  8
POINT
  10
-0.30
  20
-0.10
  30
0.00
  11
0.30
  21
-0.10
  31
0.00
  0
ENDBLK
  0
BLOCK
  8
POINT
  2
P_moonmilk
  70
0
  10
0
  20
0
  30
0
  0
ARC
  8
POINT
  10
-0.28
  20
-0.05
  30
0.00
  40
0.12
  100
AcDbArc
  50
0.00
  51
180.00
  0
ARC
  8
POINT
  10
-0.03
  20
-0.05
  30
0.00
  40
0.12
  100
AcDbArc
  50
0.00
  51
180.00
  0
ARC
  8
POINT
  10
0.23
  20
-0.05
  30
0.00
  40
0.12
  100
AcDbArc
  50
0.00
  51
180.00
  0
ENDBLK
  0
BLOCK
  8
POINT
  2
P_u-mud
  70
0
  10
0
  20
0
  30
0
  0
LINE
  8
POINT
  10
-0.30
  20
-0.15
  30
0.00
  11
0.00
  21
0.15
  31
0.00
  0
LINE
  8
POINT
  10
-0.15
  20
-0.15
  30
0.00
  11
0.15
  21
0.15
  31
0.00
  0
LINE
  8
POINT
  10
0.00
  20
-0.15
  30
0.00
  11
0.30
  21
0.15
  31
0.00
  0
ENDBLK
  0
BLOCK
  8
POINT
  2
P_narrow-end
  70
0
  10
0
  20
0
  30
0
  0
LINE
  8
POINT
  10
-0.10
  20
0.30
  30
0.00
  11
-0.10
  21
-0.30
  31
0.00
  0
LINE
  8
POINT
  10
0.10
  20
0.30
  30
0.00
  11
0.10
  21
-0.30
  31
0.00
  0
ENDBLK
  0
BLOCK
  8
POINT
  2
P_paleo-material
  70
0
  10
0
  20
0
  30
0
  0
CIRCLE
  8
POINT
  10
-0.25
  20
-0.10
  30
0.00
  40
0.05
  0
CIRCLE
  8
POINT
  10
-0.20
  20
-0.20
  30
0.00
  40
0.05
  0
CIRCLE
  8
POINT
  10
0.20
  20
0.20
  30
0.00
  40
0.05
  0
CIRCLE
  8
POINT
  10
0.25
  20
0.10
  30
0.00
  40
0.05
  0
LINE
  8
POINT
  10
-0.21
  20
-0.09
  30
0.00
  11
0.17
  21
0.17
  31
0.00
  0
LINE
  8
POINT
  10
0.21
  20
0.09
  30
0.00
  11
-0.17
  21
-0.17
  31
0.00
  0
ENDBLK
  0
BLOCK
  8
POINT
  2
P_water-flow-paleo
  70
0
  10
0
  20
0
  30
0
  0
LINE
  8
POINT
  10
0.00
  20
-0.25
  30
0.00
  11
0.00
  21
0.35
  31
0.00
  0
LINE
  8
POINT
  10
0.00
  20
0.35
  30
0.00
  11
0.10
  21
0.25
  31
0.00
  0
LINE
  8
POINT
  10
0.00
  20
0.35
  30
0.00
  11
-0.10
  21
0.25
  31
0.00
  0
ARC
  8
POINT
  10
0.00
  20
-0.00
  30
0.00
  40
0.15
  100
AcDbArc
  50
90.00
  51
180.00
  0
ARC
  8
POINT
  10
0.00
  20
-0.00
  30
0.00
  40
0.15
  100
AcDbArc
  50
0.00
  51
90.00
  0
ENDBLK
  0
BLOCK
  8
POINT
  2
P_pebbles
  70
0
  10
0
  20
0
  30
0
  0
CIRCLE
  8
POINT
  10
-0.15
  20
-0.05
  30
0.00
  40
0.10
  0
CIRCLE
  8
POINT
  10
0.20
  20
-0.15
  30
0.00
  40
0.10
  0
CIRCLE
  8
POINT
  10
0.15
  20
0.15
  30
0.00
  40
0.10
  0
ENDBLK
  0
BLOCK
  8
POINT
  2
P_u-pendant
  70
0
  10
0
  20
0
  30
0
  0
ARC
  8
POINT
  10
-0.20
  20
0.20
  30
0.00
  40
0.10
  100
AcDbArc
  50
90.00
  51
270.00
  0
ARC
  8
POINT
  10
0.00
  20
0.10
  30
0.00
  40
0.20
  100
AcDbArc
  50
180.00
  51
270.00
  0
ARC
  8
POINT
  10
0.20
  20
-0.30
  30
0.00
  40
0.20
  100
AcDbArc
  50
90.00
  51
180.00
  0
ARC
  8
POINT
  10
0.20
  20
0.20
  30
0.00
  40
0.10
  100
AcDbArc
  50
90.00
  51
270.00
  0
ENDBLK
  0
BLOCK
  8
POINT
  2
P_pillar
  70
0
  10
0
  20
0
  30
0
  0
LINE
  8
POINT
  10
-0.15
  20
0.35
  30
0.00
  11
0.00
  21
0.20
  31
0.00
  0
LINE
  8
POINT
  10
0.00
  20
0.20
  30
0.00
  11
0.00
  21
-0.20
  31
0.00
  0
LINE
  8
POINT
  10
0.00
  20
-0.20
  30
0.00
  11
-0.15
  21
-0.35
  31
0.00
  0
LINE
  8
POINT
  10
0.00
  20
-0.20
  30
0.00
  11
0.15
  21
-0.35
  31
0.00
  0
LINE
  8
POINT
  10
0.00
  20
0.20
  30
0.00
  11
0.15
  21
0.35
  31
0.00
  0
ENDBLK
  0
BLOCK
  8
POINT
  2
P_pillars
  70
0
  10
0
  20
0
  30
0
  0
LINE
  8
POINT
  10
-0.40
  20
0.50
  30
0.00
  11
-0.30
  21
0.40
  31
0.00
  0
LINE
  8
POINT
  10
-0.30
  20
0.40
  30
0.00
  11
-0.20
  21
0.50
  31
0.00
  0
LINE
  8
POINT
  10
-0.30
  20
0.40
  30
0.00
  11
-0.30
  21
-0.20
  31
0.00
  0
LINE
  8
POINT
  10
-0.40
  20
-0.30
  30
0.00
  11
-0.30
  21
-0.20
  31
0.00
  0
LINE
  8
POINT
  10
-0.30
  20
-0.20
  30
0.00
  11
-0.20
  21
-0.30
  31
0.00
  0
LINE
  8
POINT
  10
-0.20
  20
0.30
  30
0.00
  11
-0.10
  21
0.20
  31
0.00
  0
LINE
  8
POINT
  10
-0.10
  20
0.20
  30
0.00
  11
0.00
  21
0.30
  31
0.00
  0
LINE
  8
POINT
  10
-0.10
  20
0.20
  30
0.00
  11
-0.10
  21
-0.40
  31
0.00
  0
LINE
  8
POINT
  10
-0.20
  20
-0.50
  30
0.00
  11
-0.10
  21
-0.40
  31
0.00
  0
LINE
  8
POINT
  10
-0.10
  20
-0.40
  30
0.00
  11
0.00
  21
-0.50
  31
0.00
  0
LINE
  8
POINT
  10
0.00
  20
0.50
  30
0.00
  11
0.10
  21
0.40
  31
0.00
  0
LINE
  8
POINT
  10
0.10
  20
0.40
  30
0.00
  11
0.20
  21
0.50
  31
0.00
  0
LINE
  8
POINT
  10
0.10
  20
0.40
  30
0.00
  11
0.10
  21
-0.20
  31
0.00
  0
LINE
  8
POINT
  10
0.00
  20
-0.30
  30
0.00
  11
0.10
  21
-0.20
  31
0.00
  0
LINE
  8
POINT
  10
0.10
  20
-0.20
  30
0.00
  11
0.20
  21
-0.30
  31
0.00
  0
LINE
  8
POINT
  10
0.20
  20
0.30
  30
0.00
  11
0.30
  21
0.20
  31
0.00
  0
LINE
  8
POINT
  10
0.30
  20
0.20
  30
0.00
  11
0.40
  21
0.30
  31
0.00
  0
LINE
  8
POINT
  10
0.30
  20
0.20
  30
0.00
  11
0.30
  21
-0.40
  31
0.00
  0
LINE
  8
POINT
  10
0.20
  20
-0.50
  30
0.00
  11
0.30
  21
-0.40
  31
0.00
  0
LINE
  8
POINT
  10
0.30
  20
-0.40
  30
0.00
  11
0.40
  21
-0.50
  31
0.00
  0
ENDBLK
  0
BLOCK
  8
POINT
  2
P_popcorn
  70
0
  10
0
  20
0
  30
0
  0
LINE
  8
POINT
  10
-0.35
  20
-0.20
  30
0.00
  11
0.35
  21
-0.20
  31
0.00
  0
LINE
  8
POINT
  10
-0.30
  20
-0.20
  30
0.00
  11
-0.30
  21
0.05
  31
0.00
  0
CIRCLE
  8
POINT
  10
-0.30
  20
0.10
  30
0.00
  40
0.05
  0
LINE
  8
POINT
  10
0.00
  20
-0.20
  30
0.00
  11
0.00
  21
0.05
  31
0.00
  0
CIRCLE
  8
POINT
  10
0.00
  20
0.10
  30
0.00
  40
0.05
  0
LINE
  8
POINT
  10
0.30
  20
-0.20
  30
0.00
  11
0.30
  21
0.05
  31
0.00
  0
CIRCLE
  8
POINT
  10
0.30
  20
0.10
  30
0.00
  40
0.05
  0
ENDBLK
  0
BLOCK
  8
POINT
  2
P_raft
  70
0
  10
0
  20
0
  30
0
  0
ARC
  8
POINT
  10
0.00
  20
-0.00
  30
0.00
  40
0.25
  100
AcDbArc
  50
0.00
  51
180.00
  0
ENDBLK
  0
BLOCK
  8
POINT
  2
P_raftcone
  70
0
  10
0
  20
0
  30
0
  0
LINE
  8
POINT
  10
-0.15
  20
-0.20
  30
0.00
  11
0.00
  21
0.20
  31
0.00
  0
LINE
  8
POINT
  10
0.00
  20
0.20
  30
0.00
  11
0.15
  21
-0.20
  31
0.00
  0
ENDBLK
  0
BLOCK
  8
POINT
  2
P_root
  70
0
  10
0
  20
0
  30
0
  0
LINE
  8
POINT
  10
0.00
  20
0.40
  30
0.00
  11
0.00
  21
-0.20
  31
0.00
  0
LINE
  8
POINT
  10
0.00
  20
-0.20
  30
0.00
  11
0.15
  21
-0.35
  31
0.00
  0
LINE
  8
POINT
  10
0.00
  20
-0.05
  30
0.00
  11
0.15
  21
-0.20
  31
0.00
  0
LINE
  8
POINT
  10
0.00
  20
0.10
  30
0.00
  11
0.15
  21
-0.05
  31
0.00
  0
ENDBLK
  0
BLOCK
  8
POINT
  2
P_sand
  70
0
  10
0
  20
0
  30
0
  0
LINE
  8
POINT
  10
-0.35
  20
-0.15
  30
0.00
  11
-0.25
  21
-0.15
  31
0.00
  0
LINE
  8
POINT
  10
-0.25
  20
-0.15
  30
0.00
  11
-0.30
  21
-0.05
  31
0.00
  0
LINE
  8
POINT
  10
-0.30
  20
-0.05
  30
0.00
  11
-0.35
  21
-0.15
  31
0.00
  0
LINE
  8
POINT
  10
0.35
  20
-0.15
  30
0.00
  11
0.25
  21
-0.15
  31
0.00
  0
LINE
  8
POINT
  10
0.25
  20
-0.15
  30
0.00
  11
0.30
  21
-0.05
  31
0.00
  0
LINE
  8
POINT
  10
0.30
  20
-0.05
  30
0.00
  11
0.35
  21
-0.15
  31
0.00
  0
LINE
  8
POINT
  10
-0.05
  20
0.15
  30
0.00
  11
0.05
  21
0.15
  31
0.00
  0
LINE
  8
POINT
  10
0.05
  20
0.15
  30
0.00
  11
0.00
  21
0.25
  31
0.00
  0
LINE
  8
POINT
  10
0.00
  20
0.25
  30
0.00
  11
-0.05
  21
0.15
  31
0.00
  0
ENDBLK
  0
BLOCK
  8
POINT
  2
P_scallop
  70
0
  10
0
  20
0
  30
0
  0
LINE
  8
POINT
  10
0.00
  20
-0.30
  30
0.00
  11
-0.15
  21
-0.00
  31
0.00
  0
ARC
  8
POINT
  10
0.00
  20
-0.00
  30
0.00
  40
0.15
  100
AcDbArc
  50
90.00
  51
180.00
  0
ARC
  8
POINT
  10
0.00
  20
-0.00
  30
0.00
  40
0.15
  100
AcDbArc
  50
0.00
  51
90.00
  0
LINE
  8
POINT
  10
0.15
  20
-0.00
  30
0.00
  11
0.00
  21
-0.30
  31
0.00
  0
ENDBLK
  0
BLOCK
  8
POINT
  2
P_section
  70
0
  10
0
  20
0
  30
0
  0
LINE
  8
POINT
  10
-0.25
  20
0.25
  30
0.00
  11
-0.25
  21
-0.25
  31
0.00
  0
LINE
  8
POINT
  10
-0.25
  20
-0.25
  30
0.00
  11
0.25
  21
-0.25
  31
0.00
  0
LINE
  8
POINT
  10
0.25
  20
-0.25
  30
0.00
  11
0.25
  21
0.25
  31
0.00
  0
LINE
  8
POINT
  10
0.25
  20
0.25
  30
0.00
  11
-0.25
  21
0.25
  31
0.00
  0
ENDBLK
  0
BLOCK
  8
POINT
  2
P_sink
  70
0
  10
0
  20
0
  30
0
  0
CIRCLE
  8
POINT
  10
0.00
  20
-0.00
  30
0.00
  40
0.25
  0
CIRCLE
  8
POINT
  10
0.00
  20
-0.00
  30
0.00
  40
0.05
  0
ENDBLK
  0
BLOCK
  8
POINT
  2
P_snow
  70
0
  10
0
  20
0
  30
0
  0
LINE
  8
POINT
  10
0.00
  20
0.25
  30
0.00
  11
0.00
  21
-0.25
  31
0.00
  0
LINE
  8
POINT
  10
-0.20
  20
0.15
  30
0.00
  11
0.20
  21
-0.15
  31
0.00
  0
LINE
  8
POINT
  10
-0.20
  20
-0.15
  30
0.00
  11
0.20
  21
0.15
  31
0.00
  0
ENDBLK
  0
BLOCK
  8
POINT
  2
P_soda-straw
  70
0
  10
0
  20
0
  30
0
  0
LINE
  8
POINT
  10
-0.30
  20
0.10
  30
0.00
  11
0.30
  21
0.10
  31
0.00
  0
LINE
  8
POINT
  10
-0.20
  20
0.10
  30
0.00
  11
-0.20
  21
-0.10
  31
0.00
  0
LINE
  8
POINT
  10
0.00
  20
0.10
  30
0.00
  11
0.00
  21
-0.30
  31
0.00
  0
LINE
  8
POINT
  10
0.20
  20
0.10
  30
0.00
  11
0.20
  21
-0.20
  31
0.00
  0
ENDBLK
  0
BLOCK
  8
POINT
  2
P_spring
  70
0
  10
0
  20
0
  30
0
  0
CIRCLE
  8
POINT
  10
0.00
  20
-0.00
  30
0.00
  40
0.20
  0
CIRCLE
  8
POINT
  10
0.00
  20
-0.00
  30
0.00
  40
0.05
  0
LINE
  8
POINT
  10
0.00
  20
-0.00
  30
0.00
  11
0.00
  21
0.40
  31
0.00
  0
LINE
  8
POINT
  10
0.00
  20
0.40
  30
0.00
  11
0.15
  21
0.25
  31
0.00
  0
LINE
  8
POINT
  10
0.00
  20
0.40
  30
0.00
  11
-0.15
  21
0.25
  31
0.00
  0
ENDBLK
  0
BLOCK
  8
POINT
  2
P_stalactite
  70
0
  10
0
  20
0
  30
0
  0
LINE
  8
POINT
  10
-0.20
  20
0.20
  30
0.00
  11
0.00
  21
-0.00
  31
0.00
  0
LINE
  8
POINT
  10
0.00
  20
-0.00
  30
0.00
  11
0.20
  21
0.20
  31
0.00
  0
LINE
  8
POINT
  10
0.00
  20
-0.00
  30
0.00
  11
0.00
  21
-0.30
  31
0.00
  0
ENDBLK
  0
BLOCK
  8
POINT
  2
P_stalactites
  70
0
  10
0
  20
0
  30
0
  0
LINE
  8
POINT
  10
-0.40
  20
0.40
  30
0.00
  11
-0.30
  21
0.30
  31
0.00
  0
LINE
  8
POINT
  10
-0.30
  20
0.30
  30
0.00
  11
-0.20
  21
0.40
  31
0.00
  0
LINE
  8
POINT
  10
-0.30
  20
0.30
  30
0.00
  11
-0.30
  21
-0.00
  31
0.00
  0
LINE
  8
POINT
  10
-0.20
  20
0.20
  30
0.00
  11
-0.10
  21
0.10
  31
0.00
  0
LINE
  8
POINT
  10
-0.10
  20
0.10
  30
0.00
  11
0.00
  21
0.20
  31
0.00
  0
LINE
  8
POINT
  10
-0.10
  20
0.10
  30
0.00
  11
-0.10
  21
-0.20
  31
0.00
  0
LINE
  8
POINT
  10
0.00
  20
0.40
  30
0.00
  11
0.10
  21
0.30
  31
0.00
  0
LINE
  8
POINT
  10
0.10
  20
0.30
  30
0.00
  11
0.20
  21
0.40
  31
0.00
  0
LINE
  8
POINT
  10
0.10
  20
0.30
  30
0.00
  11
0.10
  21
-0.00
  31
0.00
  0
LINE
  8
POINT
  10
0.20
  20
0.20
  30
0.00
  11
0.30
  21
0.10
  31
0.00
  0
LINE
  8
POINT
  10
0.30
  20
0.10
  30
0.00
  11
0.40
  21
0.20
  31
0.00
  0
LINE
  8
POINT
  10
0.30
  20
0.10
  30
0.00
  11
0.30
  21
-0.20
  31
0.00
  0
ENDBLK
  0
BLOCK
  8
POINT
  2
P_stalagmite
  70
0
  10
0
  20
0
  30
0
  0
LINE
  8
POINT
  10
-0.20
  20
-0.20
  30
0.00
  11
0.00
  21
-0.00
  31
0.00
  0
LINE
  8
POINT
  10
0.00
  20
-0.00
  30
0.00
  11
0.20
  21
-0.20
  31
0.00
  0
LINE
  8
POINT
  10
0.00
  20
-0.00
  30
0.00
  11
0.00
  21
0.30
  31
0.00
  0
ENDBLK
  0
BLOCK
  8
POINT
  2
P_stalagmites
  70
0
  10
0
  20
0
  30
0
  0
LINE
  8
POINT
  10
-0.40
  20
-0.40
  30
0.00
  11
-0.30
  21
-0.30
  31
0.00
  0
LINE
  8
POINT
  10
-0.30
  20
-0.30
  30
0.00
  11
-0.20
  21
-0.40
  31
0.00
  0
LINE
  8
POINT
  10
-0.30
  20
-0.30
  30
0.00
  11
-0.30
  21
-0.00
  31
0.00
  0
LINE
  8
POINT
  10
-0.20
  20
-0.20
  30
0.00
  11
-0.10
  21
-0.10
  31
0.00
  0
LINE
  8
POINT
  10
-0.10
  20
-0.10
  30
0.00
  11
0.00
  21
-0.20
  31
0.00
  0
LINE
  8
POINT
  10
-0.10
  20
-0.10
  30
0.00
  11
-0.10
  21
0.20
  31
0.00
  0
LINE
  8
POINT
  10
0.00
  20
-0.40
  30
0.00
  11
0.10
  21
-0.30
  31
0.00
  0
LINE
  8
POINT
  10
0.10
  20
-0.30
  30
0.00
  11
0.20
  21
-0.40
  31
0.00
  0
LINE
  8
POINT
  10
0.10
  20
-0.30
  30
0.00
  11
0.10
  21
-0.00
  31
0.00
  0
LINE
  8
POINT
  10
0.20
  20
-0.20
  30
0.00
  11
0.30
  21
-0.10
  31
0.00
  0
LINE
  8
POINT
  10
0.30
  20
-0.10
  30
0.00
  11
0.40
  21
-0.20
  31
0.00
  0
LINE
  8
POINT
  10
0.30
  20
-0.10
  30
0.00
  11
0.30
  21
0.20
  31
0.00
  0
ENDBLK
  0
BLOCK
  8
POINT
  2
P_wall-calcite
  70
0
  10
0
  20
0
  30
0
  0
LINE
  8
POINT
  10
-0.30
  20
-0.10
  30
0.00
  11
-0.15
  21
0.10
  31
0.00
  0
LINE
  8
POINT
  10
-0.15
  20
0.10
  30
0.00
  11
0.00
  21
-0.10
  31
0.00
  0
LINE
  8
POINT
  10
0.00
  20
-0.10
  30
0.00
  11
0.15
  21
0.10
  31
0.00
  0
LINE
  8
POINT
  10
0.15
  20
0.10
  30
0.00
  11
0.30
  21
-0.10
  31
0.00
  0
ENDBLK
  0
BLOCK
  8
POINT
  2
P_water
  70
0
  10
0
  20
0
  30
0
  0
LINE
  8
POINT
  10
-0.30
  20
0.15
  30
0.00
  11
-0.05
  21
0.15
  31
0.00
  0
LINE
  8
POINT
  10
0.10
  20
0.15
  30
0.00
  11
0.30
  21
0.15
  31
0.00
  0
LINE
  8
POINT
  10
-0.20
  20
-0.00
  30
0.00
  11
0.05
  21
-0.00
  31
0.00
  0
LINE
  8
POINT
  10
0.15
  20
-0.00
  30
0.00
  11
0.35
  21
-0.00
  31
0.00
  0
LINE
  8
POINT
  10
-0.15
  20
-0.15
  30
0.00
  11
0.25
  21
-0.15
  31
0.00
  0
ENDBLK
  0
BLOCK
  8
POINT
  2
P_u-water-drip
  70
0
  10
0
  20
0
  30
0
  0
LINE
  8
POINT
  10
0.00
  20
0.40
  30
0.00
  11
0.00
  21
0.20
  31
0.00
  0
LINE
  8
POINT
  10
0.00
  20
0.10
  30
0.00
  11
0.00
  21
-0.10
  31
0.00
  0
LINE
  8
POINT
  10
0.00
  20
-0.20
  30
0.00
  11
0.00
  21
-0.40
  31
0.00
  0
LINE
  8
POINT
  10
0.00
  20
-0.40
  30
0.00
  11
0.20
  21
-0.20
  31
0.00
  0
LINE
  8
POINT
  10
0.00
  20
-0.40
  30
0.00
  11
-0.20
  21
-0.20
  31
0.00
  0
ENDBLK
  0
BLOCK
  8
POINT
  2
P_water-flow
  70
0
  10
0
  20
0
  30
0
  0
ARC
  8
POINT
  10
0.00
  20
-0.08
  30
0.00
  40
0.08
  100
AcDbArc
  50
90.00
  51
270.00
  0
ARC
  8
POINT
  10
0.00
  20
0.08
  30
0.00
  40
0.08
  100
AcDbArc
  50
270.00
  51
450.00
  0
ARC
  8
POINT
  10
0.00
  20
0.23
  30
0.00
  40
0.08
  100
AcDbArc
  50
90.00
  51
270.00
  0
ARC
  8
POINT
  10
0.00
  20
0.38
  30
0.00
  40
0.08
  100
AcDbArc
  50
270.00
  51
360.00
  0
ARC
  8
POINT
  10
0.00
  20
0.38
  30
0.00
  40
0.08
  100
AcDbArc
  50
0.00
  51
90.00
  0
LINE
  8
POINT
  10
0.00
  20
0.50
  30
0.00
  11
0.20
  21
0.30
  31
0.00
  0
LINE
  8
POINT
  10
0.00
  20
0.50
  30
0.00
  11
-0.20
  21
0.30
  31
0.00
  0
ENDBLK
  0
ENDSEC
  0
SECTION
  2
ENTITIES
  0
LINE
  8
REF
  10
-2.00
  20
-2.00
  30
0.00
  11
198.00
  21
-2.00
  31
0.00
  0
LINE
  8
REF
  10
-2.00
  20
-2.00
  30
0.00
  11
-2.00
  21
198.00
  31
0.00
  0
TEXT
  8
REF
  10
199.00
  20
-2.00
  30
0.00
  40
6.00
  50
0.00
  51
0.00
  1
10
  7
MyStyle
  100
AcDbText
  0
TEXT
  8
REF
  10
-2.00
  20
199.00
  30
0.00
  40
6.00
  50
0.00
  51
0.00
  1
10
  7
MyStyle
  100
AcDbText
  0
LINE
  8
LEG
  10
150.18
  20
-104.96
  30
0.00
  11
100.00
  21
-120.00
  31
0.00
  0
LINE
  8
LEG
  10
100.00
  20
-120.00
  30
0.00
  11
-46.07
  21
-170.65
  31
0.00
  0
LINE
  8
LEG
  10
-46.07
  20
-170.65
  30
0.00
  11
-199.52
  21
-171.19
  31
0.00
  0
LINE
  8
LEG
  10
-199.52
  20
-171.19
  30
0.00
  11
-250.02
  21
-205.74
  31
0.00
  0
LINE
  8
LEG
  10
-250.02
  20
-205.74
  30
0.00
  11
-333.06
  21
-133.84
  31
0.00
  0
LINE
  8
LEG
  10
-46.07
  20
-170.65
  30
0.00
  11
-1.85
  21
-132.86
  31
0.00
  0
LINE
  8
LEG
  10
-1.85
  20
-132.86
  30
0.00
  11
30.48
  21
-120.21
  31
0.00
  0
LINE
  8
LEG
  10
30.48
  20
-120.21
  30
0.00
  11
-8.53
  21
-122.60
  31
0.00
  0
LINE
  8
LEG
  10
-8.53
  20
-122.60
  30
0.00
  11
-53.21
  21
-114.52
  31
0.00
  0
LINE
  8
LEG
  10
-53.21
  20
-114.52
  30
0.00
  11
-8.68
  21
-111.17
  31
0.00
  0
LINE
  8
LEG
  10
-8.68
  20
-111.17
  30
0.00
  11
15.83
  21
-124.56
  31
0.00
  0
LINE
  8
LEG
  10
15.83
  20
-124.56
  30
0.00
  11
-45.40
  21
-157.12
  31
0.00
  0
LINE
  8
LEG
  10
-45.40
  20
-157.12
  30
0.00
  11
-76.80
  21
-156.57
  31
0.00
  0
LINE
  8
LEG
  10
-76.80
  20
-156.57
  30
0.00
  11
-106.96
  21
-151.05
  31
0.00
  0
LINE
  8
LEG
  10
-106.96
  20
-151.05
  30
0.00
  11
-157.62
  21
-142.05
  31
0.00
  0
LINE
  8
LEG
  10
-157.62
  20
-142.05
  30
0.00
  11
-235.85
  21
-130.12
  31
0.00
  0
LINE
  8
LEG
  10
-235.85
  20
-130.12
  30
0.00
  11
-189.89
  21
-121.30
  31
0.00
  0
LINE
  8
LEG
  10
-189.89
  20
-121.30
  30
0.00
  11
-173.02
  21
-101.25
  31
0.00
  0
LINE
  8
LEG
  10
-173.02
  20
-101.25
  30
0.00
  11
-158.92
  21
-87.39
  31
0.00
  0
LINE
  8
LEG
  10
-158.92
  20
-87.39
  30
0.00
  11
-101.15
  21
-60.61
  31
0.00
  0
LINE
  8
LEG
  10
-101.15
  20
-60.61
  30
0.00
  11
-121.39
  21
-43.42
  31
0.00
  0
LINE
  8
LEG
  10
-121.39
  20
-43.42
  30
0.00
  11
-93.66
  21
-29.73
  31
0.00
  0
LINE
  8
LEG
  10
-93.66
  20
-29.73
  30
0.00
  11
-35.21
  21
-28.90
  31
0.00
  0
LINE
  8
LEG
  10
-35.21
  20
-28.90
  30
0.00
  11
13.02
  21
-3.21
  31
0.00
  0
LINE
  8
LEG
  10
13.02
  20
-3.21
  30
0.00
  11
62.33
  21
7.02
  31
0.00
  0
LINE
  8
LEG
  10
62.33
  20
7.02
  30
0.00
  11
90.62
  21
20.58
  31
0.00
  0
LINE
  8
SPLAY
  10
100.00
  20
-120.00
  30
0.00
  11
131.43
  21
-119.77
  31
0.00
  0
LINE
  8
SPLAY
  10
100.00
  20
-120.00
  30
0.00
  11
120.15
  21
-109.87
  31
0.00
  0
LINE
  8
SPLAY
  10
100.00
  20
-120.00
  30
0.00
  11
129.29
  21
-117.09
  31
0.00
  0
LINE
  8
SPLAY
  10
100.00
  20
-120.00
  30
0.00
  11
128.96
  21
-142.36
  31
0.00
  0
LINE
  8
SPLAY
  10
100.00
  20
-120.00
  30
0.00
  11
139.18
  21
-116.86
  31
0.00
  0
LINE
  8
SPLAY
  10
100.00
  20
-120.00
  30
0.00
  11
71.83
  21
-121.01
  31
0.00
  0
LINE
  8
SPLAY
  10
100.00
  20
-120.00
  30
0.00
  11
44.24
  21
-121.67
  31
0.00
  0
LINE
  8
SPLAY
  10
100.00
  20
-120.00
  30
0.00
  11
-60.29
  21
-162.98
  31
0.00
  0
LINE
  8
SPLAY
  10
100.00
  20
-120.00
  30
0.00
  11
-4.84
  21
-166.36
  31
0.00
  0
LINE
  8
SPLAY
  10
100.00
  20
-120.00
  30
0.00
  11
-89.38
  21
-168.79
  31
0.00
  0
LINE
  8
SPLAY
  10
-46.07
  20
-170.65
  30
0.00
  11
-46.64
  21
-160.30
  31
0.00
  0
LINE
  8
SPLAY
  10
-46.07
  20
-170.65
  30
0.00
  11
-67.33
  21
-150.66
  31
0.00
  0
LINE
  8
SPLAY
  10
-46.07
  20
-170.65
  30
0.00
  11
-65.41
  21
-140.34
  31
0.00
  0
LINE
  8
SPLAY
  10
-46.07
  20
-170.65
  30
0.00
  11
10.38
  21
-128.63
  31
0.00
  0
LINE
  8
SPLAY
  10
-46.07
  20
-170.65
  30
0.00
  11
-35.96
  21
-258.42
  31
0.00
  0
LINE
  8
SPLAY
  10
-46.07
  20
-170.65
  30
0.00
  11
-94.08
  21
-280.47
  31
0.00
  0
LINE
  8
SPLAY
  10
-46.07
  20
-170.65
  30
0.00
  11
-181.43
  21
-316.04
  31
0.00
  0
LINE
  8
SPLAY
  10
-46.07
  20
-170.65
  30
0.00
  11
-7.82
  21
-139.53
  31
0.00
  0
LINE
  8
SPLAY
  10
-46.07
  20
-170.65
  30
0.00
  11
-27.89
  21
-151.33
  31
0.00
  0
LINE
  8
SPLAY
  10
-199.52
  20
-171.19
  30
0.00
  11
-198.05
  21
-165.91
  31
0.00
  0
LINE
  8
SPLAY
  10
-199.52
  20
-171.19
  30
0.00
  11
-197.12
  21
-176.69
  31
0.00
  0
LINE
  8
SPLAY
  10
-199.52
  20
-171.19
  30
0.00
  11
-248.46
  21
-200.32
  31
0.00
  0
LINE
  8
SPLAY
  10
-199.52
  20
-171.19
  30
0.00
  11
-269.08
  21
-211.22
  31
0.00
  0
LINE
  8
SPLAY
  10
-199.52
  20
-171.19
  30
0.00
  11
-192.79
  21
-290.86
  31
0.00
  0
LINE
  8
SPLAY
  10
-199.52
  20
-171.19
  30
0.00
  11
-120.89
  21
-178.59
  31
0.00
  0
LINE
  8
SPLAY
  10
-199.52
  20
-171.19
  30
0.00
  11
-146.68
  21
-175.95
  31
0.00
  0
LINE
  8
SPLAY
  10
-199.52
  20
-171.19
  30
0.00
  11
-179.63
  21
-168.34
  31
0.00
  0
LINE
  8
SPLAY
  10
-199.52
  20
-171.19
  30
0.00
  11
-126.54
  21
-184.18
  31
0.00
  0
LINE
  8
SPLAY
  10
-250.02
  20
-205.74
  30
0.00
  11
-249.34
  21
-201.97
  31
0.00
  0
LINE
  8
SPLAY
  10
-250.02
  20
-205.74
  30
0.00
  11
-250.39
  21
-174.75
  31
0.00
  0
LINE
  8
SPLAY
  10
-250.02
  20
-205.74
  30
0.00
  11
-290.87
  21
-146.99
  31
0.00
  0
LINE
  8
SPLAY
  10
-250.02
  20
-205.74
  30
0.00
  11
-266.12
  21
-174.59
  31
0.00
  0
LINE
  8
SPLAY
  10
-250.02
  20
-205.74
  30
0.00
  11
-262.77
  21
-209.84
  31
0.00
  0
LINE
  8
SPLAY
  10
-250.02
  20
-205.74
  30
0.00
  11
-241.26
  21
-226.11
  31
0.00
  0
LINE
  8
SPLAY
  10
-250.02
  20
-205.74
  30
0.00
  11
-231.61
  21
-286.95
  31
0.00
  0
LINE
  8
SPLAY
  10
-250.02
  20
-205.74
  30
0.00
  11
-216.68
  21
-176.79
  31
0.00
  0
LINE
  8
SPLAY
  10
-250.02
  20
-205.74
  30
0.00
  11
-197.41
  21
-162.00
  31
0.00
  0
LINE
  8
SPLAY
  10
-250.02
  20
-205.74
  30
0.00
  11
-151.90
  21
-167.95
  31
0.00
  0
LINE
  8
SPLAY
  10
-333.06
  20
-133.84
  30
0.00
  11
-333.06
  21
-148.58
  31
0.00
  0
LINE
  8
SPLAY
  10
-333.06
  20
-133.84
  30
0.00
  11
-333.06
  21
-165.02
  31
0.00
  0
LINE
  8
SPLAY
  10
-333.06
  20
-133.84
  30
0.00
  11
-333.06
  21
-147.06
  31
0.00
  0
LINE
  8
SPLAY
  10
-333.06
  20
-133.84
  30
0.00
  11
-333.06
  21
-136.20
  31
0.00
  0
LINE
  8
SPLAY
  10
-333.06
  20
-133.84
  30
0.00
  11
-325.12
  21
-141.50
  31
0.00
  0
LINE
  8
SPLAY
  10
-333.06
  20
-133.84
  30
0.00
  11
-280.18
  21
-172.53
  31
0.00
  0
LINE
  8
SPLAY
  10
-333.06
  20
-133.84
  30
0.00
  11
-271.65
  21
-175.76
  31
0.00
  0
LINE
  8
SPLAY
  10
-333.06
  20
-133.84
  30
0.00
  11
-333.06
  21
-147.15
  31
0.00
  0
LINE
  8
SPLAY
  10
-333.06
  20
-133.84
  30
0.00
  11
-333.06
  21
-146.65
  31
0.00
  0
LINE
  8
SPLAY
  10
-1.85
  20
-132.86
  30
0.00
  11
-1.00
  21
-135.67
  31
0.00
  0
LINE
  8
SPLAY
  10
-1.85
  20
-132.86
  30
0.00
  11
25.92
  21
-132.92
  31
0.00
  0
LINE
  8
SPLAY
  10
-1.85
  20
-132.86
  30
0.00
  11
-33.96
  21
-143.93
  31
0.00
  0
LINE
  8
SPLAY
  10
30.48
  20
-120.21
  30
0.00
  11
16.88
  21
-115.54
  31
0.00
  0
LINE
  8
SPLAY
  10
30.48
  20
-120.21
  30
0.00
  11
12.05
  21
-115.60
  31
0.00
  0
LINE
  8
SPLAY
  10
30.48
  20
-120.21
  30
0.00
  11
-4.09
  21
-122.66
  31
0.00
  0
LINE
  8
SPLAY
  10
30.48
  20
-120.21
  30
0.00
  11
8.59
  21
-127.91
  31
0.00
  0
LINE
  8
SPLAY
  10
-8.53
  20
-122.60
  30
0.00
  11
-30.41
  21
-121.34
  31
0.00
  0
LINE
  8
SPLAY
  10
-8.53
  20
-122.60
  30
0.00
  11
-47.49
  21
-112.99
  31
0.00
  0
LINE
  8
SPLAY
  10
-8.53
  20
-122.60
  30
0.00
  11
17.04
  21
-114.15
  31
0.00
  0
LINE
  8
SPLAY
  10
-8.53
  20
-122.60
  30
0.00
  11
-35.48
  21
-120.43
  31
0.00
  0
LINE
  8
SPLAY
  10
-53.21
  20
-114.52
  30
0.00
  11
-34.48
  21
-118.29
  31
0.00
  0
LINE
  8
SPLAY
  10
-53.21
  20
-114.52
  30
0.00
  11
-29.55
  21
-104.64
  31
0.00
  0
LINE
  8
SPLAY
  10
-53.21
  20
-114.52
  30
0.00
  11
-44.11
  21
-122.51
  31
0.00
  0
LINE
  8
SPLAY
  10
-53.21
  20
-114.52
  30
0.00
  11
-30.92
  21
-116.74
  31
0.00
  0
LINE
  8
SPLAY
  10
-8.68
  20
-111.17
  30
0.00
  11
12.70
  21
-108.68
  31
0.00
  0
LINE
  8
SPLAY
  10
-8.68
  20
-111.17
  30
0.00
  11
21.36
  21
-114.66
  31
0.00
  0
LINE
  8
SPLAY
  10
-8.68
  20
-111.17
  30
0.00
  11
17.40
  21
-133.87
  31
0.00
  0
LINE
  8
SPLAY
  10
-8.68
  20
-111.17
  30
0.00
  11
-13.86
  21
-116.74
  31
0.00
  0
LINE
  8
SPLAY
  10
-8.68
  20
-111.17
  30
0.00
  11
-28.99
  21
-104.02
  31
0.00
  0
LINE
  8
SPLAY
  10
15.83
  20
-124.56
  30
0.00
  11
-15.21
  21
-124.30
  31
0.00
  0
LINE
  8
SPLAY
  10
15.83
  20
-124.56
  30
0.00
  11
-7.68
  21
-115.86
  31
0.00
  0
LINE
  8
SPLAY
  10
15.83
  20
-124.56
  30
0.00
  11
-13.79
  21
-154.00
  31
0.00
  0
LINE
  8
SPLAY
  10
15.83
  20
-124.56
  30
0.00
  11
-8.41
  21
-78.68
  31
0.00
  0
LINE
  8
SPLAY
  10
-76.80
  20
-156.57
  30
0.00
  11
-65.13
  21
-151.55
  31
0.00
  0
LINE
  8
SPLAY
  10
-106.96
  20
-151.05
  30
0.00
  11
-99.67
  21
-146.95
  31
0.00
  0
LINE
  8
SPLAY
  10
-106.96
  20
-151.05
  30
0.00
  11
-112.17
  21
-141.08
  31
0.00
  0
LINE
  8
SPLAY
  10
-157.62
  20
-142.05
  30
0.00
  11
-166.88
  21
-140.56
  31
0.00
  0
LINE
  8
SPLAY
  10
-157.62
  20
-142.05
  30
0.00
  11
-203.45
  21
-135.35
  31
0.00
  0
LINE
  8
SPLAY
  10
-157.62
  20
-142.05
  30
0.00
  11
-186.62
  21
-137.40
  31
0.00
  0
LINE
  8
SPLAY
  10
-235.85
  20
-130.12
  30
0.00
  11
-236.03
  21
-129.99
  31
0.00
  0
LINE
  8
SPLAY
  10
-235.85
  20
-130.12
  30
0.00
  11
-222.14
  21
-132.44
  31
0.00
  0
LINE
  8
SPLAY
  10
-235.85
  20
-130.12
  30
0.00
  11
-245.70
  21
-140.50
  31
0.00
  0
LINE
  8
SPLAY
  10
-235.85
  20
-130.12
  30
0.00
  11
-276.41
  21
-144.26
  31
0.00
  0
LINE
  8
SPLAY
  10
-189.89
  20
-121.30
  30
0.00
  11
-191.69
  21
-120.67
  31
0.00
  0
LINE
  8
SPLAY
  10
-189.89
  20
-121.30
  30
0.00
  11
-204.98
  21
-139.47
  31
0.00
  0
LINE
  8
SPLAY
  10
-173.02
  20
-101.25
  30
0.00
  11
-186.15
  21
-93.28
  31
0.00
  0
LINE
  8
SPLAY
  10
-173.02
  20
-101.25
  30
0.00
  11
-190.49
  21
-99.68
  31
0.00
  0
LINE
  8
SPLAY
  10
-158.92
  20
-87.39
  30
0.00
  11
-148.30
  21
-90.35
  31
0.00
  0
LINE
  8
SPLAY
  10
-158.92
  20
-87.39
  30
0.00
  11
-136.76
  21
-71.00
  31
0.00
  0
LINE
  8
SPLAY
  10
-158.92
  20
-87.39
  30
0.00
  11
-147.62
  21
-81.32
  31
0.00
  0
LINE
  8
SPLAY
  10
-101.15
  20
-60.61
  30
0.00
  11
-117.30
  21
-55.55
  31
0.00
  0
LINE
  8
SPLAY
  10
-101.15
  20
-60.61
  30
0.00
  11
-102.95
  21
-51.89
  31
0.00
  0
LINE
  8
SPLAY
  10
-121.39
  20
-43.42
  30
0.00
  11
-101.24
  21
-37.65
  31
0.00
  0
LINE
  8
SPLAY
  10
-121.39
  20
-43.42
  30
0.00
  11
-107.30
  21
-26.30
  31
0.00
  0
LINE
  8
SPLAY
  10
-121.39
  20
-43.42
  30
0.00
  11
-106.11
  21
-47.55
  31
0.00
  0
LINE
  8
SPLAY
  10
-93.66
  20
-29.73
  30
0.00
  11
-90.07
  21
-35.14
  31
0.00
  0
LINE
  8
SPLAY
  10
-93.66
  20
-29.73
  30
0.00
  11
-86.95
  21
-39.84
  31
0.00
  0
LINE
  8
SPLAY
  10
-93.66
  20
-29.73
  30
0.00
  11
-68.50
  21
-32.57
  31
0.00
  0
LINE
  8
SPLAY
  10
-35.21
  20
-28.90
  30
0.00
  11
-71.80
  21
-67.08
  31
0.00
  0
LINE
  8
SPLAY
  10
-35.21
  20
-28.90
  30
0.00
  11
-37.92
  21
-34.62
  31
0.00
  0
LINE
  8
SPLAY
  10
13.02
  20
-3.21
  30
0.00
  11
21.51
  21
-11.75
  31
0.00
  0
LINE
  8
SPLAY
  10
13.02
  20
-3.21
  30
0.00
  11
32.67
  21
-5.04
  31
0.00
  0
LINE
  8
SPLAY
  10
62.33
  20
7.02
  30
0.00
  11
61.05
  21
8.14
  31
0.00
  0
LINE
  8
SPLAY
  10
62.33
  20
7.02
  30
0.00
  11
93.84
  21
18.48
  31
0.00
  0
TEXT
  8
STATION
  10
100.00
  20
-120.00
  30
0.00
  40
6.00
  50
0.00
  51
0.00
  1
43
  7
MyStyle
  100
AcDbText
  0
TEXT
  8
STATION
  10
150.18
  20
-104.96
  30
0.00
  40
6.00
  50
0.00
  51
0.00
  1
42
  7
MyStyle
  100
AcDbText
  0
TEXT
  8
STATION
  10
-46.07
  20
-170.65
  30
0.00
  40
6.00
  50
0.00
  51
0.00
  1
44
  7
MyStyle
  100
AcDbText
  0
TEXT
  8
STATION
  10
-199.52
  20
-171.19
  30
0.00
  40
6.00
  50
0.00
  51
0.00
  1
45
  7
MyStyle
  100
AcDbText
  0
TEXT
  8
STATION
  10
-250.02
  20
-205.74
  30
0.00
  40
6.00
  50
0.00
  51
0.00
  1
46
  7
MyStyle
  100
AcDbText
  0
TEXT
  8
STATION
  10
-333.06
  20
-133.84
  30
0.00
  40
6.00
  50
0.00
  51
0.00
  1
47
  7
MyStyle
  100
AcDbText
  0
TEXT
  8
STATION
  10
-1.85
  20
-132.86
  30
0.00
  40
6.00
  50
0.00
  51
0.00
  1
92
  7
MyStyle
  100
AcDbText
  0
TEXT
  8
STATION
  10
30.48
  20
-120.21
  30
0.00
  40
6.00
  50
0.00
  51
0.00
  1
93
  7
MyStyle
  100
AcDbText
  0
TEXT
  8
STATION
  10
-8.53
  20
-122.60
  30
0.00
  40
6.00
  50
0.00
  51
0.00
  1
94
  7
MyStyle
  100
AcDbText
  0
TEXT
  8
STATION
  10
-53.21
  20
-114.52
  30
0.00
  40
6.00
  50
0.00
  51
0.00
  1
95
  7
MyStyle
  100
AcDbText
  0
TEXT
  8
STATION
  10
-8.68
  20
-111.17
  30
0.00
  40
6.00
  50
0.00
  51
0.00
  1
96
  7
MyStyle
  100
AcDbText
  0
TEXT
  8
STATION
  10
15.83
  20
-124.56
  30
0.00
  40
6.00
  50
0.00
  51
0.00
  1
97
  7
MyStyle
  100
AcDbText
  0
TEXT
  8
STATION
  10
-45.40
  20
-157.12
  30
0.00
  40
6.00
  50
0.00
  51
0.00
  1
98
  7
MyStyle
  100
AcDbText
  0
TEXT
  8
STATION
  10
-76.80
  20
-156.57
  30
0.00
  40
6.00
  50
0.00
  51
0.00
  1
99
  7
MyStyle
  100
AcDbText
  0
TEXT
  8
STATION
  10
-106.96
  20
-151.05
  30
0.00
  40
6.00
  50
0.00
  51
0.00
  1
100
  7
MyStyle
  100
AcDbText
  0
TEXT
  8
STATION
  10
-157.62
  20
-142.05
  30
0.00
  40
6.00
  50
0.00
  51
0.00
  1
101
  7
MyStyle
  100
AcDbText
  0
TEXT
  8
STATION
  10
-235.85
  20
-130.12
  30
0.00
  40
6.00
  50
0.00
  51
0.00
  1
102
  7
MyStyle
  100
AcDbText
  0
TEXT
  8
STATION
  10
-189.89
  20
-121.30
  30
0.00
  40
6.00
  50
0.00
  51
0.00
  1
103
  7
MyStyle
  100
AcDbText
  0
TEXT
  8
STATION
  10
-173.02
  20
-101.25
  30
0.00
  40
6.00
  50
0.00
  51
0.00
  1
104
  7
MyStyle
  100
AcDbText
  0
TEXT
  8
STATION
  10
-158.92
  20
-87.39
  30
0.00
  40
6.00
  50
0.00
  51
0.00
  1
105
  7
MyStyle
  100
AcDbText
  0
TEXT
  8
STATION
  10
-101.15
  20
-60.61
  30
0.00
  40
6.00
  50
0.00
  51
0.00
  1
106
  7
MyStyle
  100
AcDbText
  0
TEXT
  8
STATION
  10
-121.39
  20
-43.42
  30
0.00
  40
6.00
  50
0.00
  51
0.00
  1
107
  7
MyStyle
  100
AcDbText
  0
TEXT
  8
STATION
  10
-93.66
  20
-29.73
  30
0.00
  40
6.00
  50
0.00
  51
0.00
  1
108
  7
MyStyle
  100
AcDbText
  0
TEXT
  8
STATION
  10
-35.21
  20
-28.90
  30
0.00
  40
6.00
  50
0.00
  51
0.00
  1
109
  7
MyStyle
  100
AcDbText
  0
TEXT
  8
STATION
  10
13.02
  20
-3.21
  30
0.00
  40
6.00
  50
0.00
  51
0.00
  1
110
  7
MyStyle
  100
AcDbText
  0
TEXT
  8
STATION
  10
62.33
  20
7.02
  30
0.00
  40
6.00
  50
0.00
  51
0.00
  1
111
  7
MyStyle
  100
AcDbText
  0
TEXT
  8
STATION
  10
90.62
  20
20.58
  30
0.00
  40
6.00
  50
0.00
  51
0.00
  1
112
  7
MyStyle
  100
AcDbText
  0
ENDSEC
  0
EOF
