  999
DXF created by TopoDroid v. 4.0.1a
  0
SECTION
  2
HEADER
  9
$ACADVER
  1
AC1009
  9
$INSBASE
  10
0.00
  20
0.00
  30
0.00
  9
$EXTMIN
  10
-853.22
  20
-538.23
  30
0.00
  9
$EXTMAX
  10
147.56
  20
56.54
  30
0.00
  0
ENDSEC
  0
SECTION
  2
TABLES
  0
TABLE
  2
LTYPE
  70
2
  0
LTYPE
  2
Continuous
  70
64
  3
Solid line
  72
65
  73
0
  40
0.0
  0
ENDTAB
  0
TABLE
  2
LAYER
  70
37
  0
LAYER
  2
LEG
  70
0
  62
1
  6
Continuous
  0
LAYER
  2
SPLAY
  70
0
  62
2
  6
Continuous
  0
LAYER
  2
STATION
  70
0
  62
3
  6
Continuous
  0
LAYER
  2
LINE
  70
0
  62
4
  6
Continuous
  0
LAYER
  2
POINT
  70
0
  62
5
  6
Continuous
  0
LAYER
  2
AREA
  70
0
  62
6
  6
Continuous
  0
LAYER
  2
REF
  70
0
  62
7
  6
Continuous
  0
LAYER
  2
L_u-user
  70
0
  62
10
  6
Continuous
  0
LAYER
  2
L_wall
  70
0
  62
11
  6
Continuous
  0
LAYER
  2
L_arrow
  70
0
  62
12
  6
Continuous
  0
LAYER
  2
L_border
  70
0
  62
13
  6
Continuous
  0
LAYER
  2
L_ceiling-meander
  70
0
  62
14
  6
Continuous
  0
LAYER
  2
L_chimney
  70
0
  62
15
  6
Continuous
  0
LAYER
  2
L_contour
  70
0
  62
16
  6
Continuous
  0
LAYER
  2
L_u-fault
  70
0
  62
17
  6
Continuous
  0
LAYER
  2
L_floor-meander
  70
0
  62
18
  6
Continuous
  0
LAYER
  2
L_overhang
  70
0
  62
19
  6
Continuous
  0
LAYER
  2
L_pit
  70
0
  62
20
  6
Continuous
  0
LAYER
  2
L_wall-presumed
  70
0
  62
21
  6
Continuous
  0
LAYER
  2
L_rock-border
  70
0
  62
22
  6
Continuous
  0
LAYER
  2
L_section
  70
0
  62
23
  6
Continuous
  0
LAYER
  2
L_slope
  70
0
  62
24
  6
Continuous
  0
LAYER
  2
L_wall-blocks
  70
0
  62
25
  6
Continuous
  0
LAYER
  2
L_wall-clay
  70
0
  62
26
  6
Continuous
  0
LAYER
  2
L_wall-debris
  70
0
  62
27
  6
Continuous
  0
LAYER
  2
L_wall-ice
  70
0
  62
28
  6
Continuous
  0
LAYER
  2
L_wall-sand
  70
0
  62
29
  6
Continuous
  0
LAYER
  2
L_water-flow
  70
0
  62
30
  6
Continuous
  0
LAYER
  2
A_u-user
  70
0
  62
60
  6
Continuous
  0
LAYER
  2
A_water
  70
0
  62
61
  6
Continuous
  0
LAYER
  2
A_blocks
  70
0
  62
62
  6
Continuous
  0
LAYER
  2
A_clay
  70
0
  62
63
  6
Continuous
  0
LAYER
  2
A_debris
  70
0
  62
64
  6
Continuous
  0
LAYER
  2
A_ice
  70
0
  62
65
  6
Continuous
  0
LAYER
  2
A_pebbles
  70
0
  62
66
  6
Continuous
  0
LAYER
  2
A_sand
  70
0
  62
67
  6
Continuous
  0
LAYER
  2
A_snow
  70
0
  62
68
  6
Continuous
  0
ENDTAB
  0
TABLE
  2
VIEW
  70
0
  0
ENDTAB
  0
TABLE
  2
UCS
  70
0
  0
ENDTAB
  0
TABLE
  2
APPID
  70
1
  0
APPID
  2
ACAD
  70
0
  0
ENDTAB
  0
ENDSEC
  0
SECTION
  2
BLOCKS
  0
BLOCK
  8
POINT
  2
P_u-user
  70
0
  10
0
  20
0
  30
0
  0
CIRCLE
  8
POINT
  10
0.00
  20
-0.00
  30
0.00
  40
0.30
  0
ENDBLK
  0
BLOCK
  8
POINT
  2
P_label
  70
0
  10
0
  20
0
  30
0
  0
LINE
  8
POINT
  10
0.00
  20
-0.15
  30
0.00
  11
0.00
  21
0.30
  31
0.00
  0
LINE
  8
POINT
  10
0.00
  20
0.30
  30
0.00
  11
-0.15
  21
0.30
  31
0.00
  0
LINE
  8
POINT
  10
-0.15
  20
0.30
  30
0.00
  11
0.15
  21
0.30
  31
0.00
  0
ENDBLK
  0
BLOCK
  8
POINT
  2
P_air-draught
  70
0
  10
0
  20
0
  30
0
  0
LINE
  8
POINT
  10
-0.20
  20
-0.35
  30
0.00
  11
0.00
  21
-0.15
  31
0.00
  0
LINE
  8
POINT
  10
0.00
  20
-0.15
  30
0.00
  11
0.00
  21
0.50
  31
0.00
  0
LINE
  8
POINT
  10
0.00
  20
0.50
  30
0.00
  11
0.20
  21
0.30
  31
0.00
  0
LINE
  8
POINT
  10
0.00
  20
0.50
  30
0.00
  11
-0.20
  21
0.30
  31
0.00
  0
LINE
  8
POINT
  10
-0.20
  20
-0.20
  30
0.00
  11
0.00
  21
-0.00
  31
0.00
  0
ENDBLK
  0
BLOCK
  8
POINT
  2
P_anchor
  70
0
  10
0
  20
0
  30
0
  0
LINE
  8
POINT
  10
0.25
  20
-0.00
  30
0.00
  11
-0.25
  21
-0.00
  31
0.00
  0
CIRCLE
  8
POINT
  10
0.00
  20
-0.00
  30
0.00
  40
0.25
  0
ENDBLK
  0
BLOCK
  8
POINT
  2
P_aragonite
  70
0
  10
0
  20
0
  30
0
  0
LINE
  8
POINT
  10
0.00
  20
0.25
  30
0.00
  11
0.00
  21
-0.35
  31
0.00
  0
LINE
  8
POINT
  10
-0.10
  20
0.35
  30
0.00
  11
0.00
  21
0.25
  31
0.00
  0
LINE
  8
POINT
  10
0.00
  20
0.25
  30
0.00
  11
0.10
  21
0.35
  31
0.00
  0
LINE
  8
POINT
  10
-0.15
  20
0.20
  30
0.00
  11
0.00
  21
0.05
  31
0.00
  0
LINE
  8
POINT
  10
0.00
  20
0.05
  30
0.00
  11
0.15
  21
0.20
  31
0.00
  0
ENDBLK
  0
BLOCK
  8
POINT
  2
P_archeo-material
  70
0
  10
0
  20
0
  30
0
  0
LINE
  8
POINT
  10
-0.17
  20
-0.17
  30
0.00
  11
0.00
  21
-0.00
  31
0.00
  0
LINE
  8
POINT
  10
-0.17
  20
0.17
  30
0.00
  11
0.00
  21
-0.00
  31
0.00
  0
LINE
  8
POINT
  10
0.00
  20
-0.00
  30
0.00
  11
0.25
  21
-0.00
  31
0.00
  0
CIRCLE
  8
POINT
  10
0.00
  20
-0.00
  30
0.00
  40
0.25
  0
ENDBLK
  0
BLOCK
  8
POINT
  2
P_blocks
  70
0
  10
0
  20
0
  30
0
  0
LINE
  8
POINT
  10
-0.35
  20
-0.20
  30
0.00
  11
0.40
  21
-0.25
  31
0.00
  0
LINE
  8
POINT
  10
0.40
  20
-0.25
  30
0.00
  11
0.35
  21
0.25
  31
0.00
  0
LINE
  8
POINT
  10
0.35
  20
0.25
  30
0.00
  11
-0.25
  21
0.30
  31
0.00
  0
LINE
  8
POINT
  10
-0.25
  20
0.30
  30
0.00
  11
-0.35
  21
0.20
  31
0.00
  0
LINE
  8
POINT
  10
-0.35
  20
0.20
  30
0.00
  11
-0.35
  21
-0.20
  31
0.00
  0
LINE
  8
POINT
  10
-0.35
  20
-0.20
  30
0.00
  11
-0.30
  21
-0.10
  31
0.00
  0
LINE
  8
POINT
  10
-0.30
  20
-0.10
  30
0.00
  11
-0.25
  21
0.10
  31
0.00
  0
LINE
  8
POINT
  10
-0.25
  20
0.10
  30
0.00
  11
-0.20
  21
0.20
  31
0.00
  0
LINE
  8
POINT
  10
-0.20
  20
0.20
  30
0.00
  11
0.25
  21
0.15
  31
0.00
  0
LINE
  8
POINT
  10
0.25
  20
0.15
  30
0.00
  11
0.35
  21
0.25
  31
0.00
  0
LINE
  8
POINT
  10
-0.20
  20
0.20
  30
0.00
  11
-0.25
  21
0.30
  31
0.00
  0
ENDBLK
  0
BLOCK
  8
POINT
  2
P_breakdown-choke
  70
0
  10
0
  20
0
  30
0
  0
LINE
  8
POINT
  10
-0.20
  20
-0.20
  30
0.00
  11
0.20
  21
0.20
  31
0.00
  0
LINE
  8
POINT
  10
-0.20
  20
0.20
  30
0.00
  11
0.20
  21
-0.20
  31
0.00
  0
ENDBLK
  0
BLOCK
  8
POINT
  2
P_cave-pearl
  70
0
  10
0
  20
0
  30
0
  0
CIRCLE
  8
POINT
  10
-0.20
  20
-0.05
  30
0.00
  40
0.10
  0
CIRCLE
  8
POINT
  10
0.20
  20
0.05
  30
0.00
  40
0.10
  0
ENDBLK
  0
BLOCK
  8
POINT
  2
P_clay
  70
0
  10
0
  20
0
  30
0
  0
ARC
  8
POINT
  10
-0.15
  20
-0.00
  30
0.00
  40
0.15
  100
AcDbArc
  50
90.00
  51
180.00
  0
ARC
  8
POINT
  10
-0.15
  20
-0.00
  30
0.00
  40
0.15
  100
AcDbArc
  50
0.00
  51
90.00
  0
ARC
  8
POINT
  10
0.15
  20
-0.00
  30
0.00
  40
0.15
  100
AcDbArc
  50
180.00
  51
270.00
  0
ARC
  8
POINT
  10
0.15
  20
-0.00
  30
0.00
  40
0.15
  100
AcDbArc
  50
270.00
  51
360.00
  0
ENDBLK
  0
BLOCK
  8
POINT
  2
P_continuation
  70
0
  10
0
  20
0
  30
0
  0
LINE
  8
POINT
  10
0.00
  20
-0.15
  30
0.00
  11
0.00
  21
-0.00
  31
0.00
  0
ARC
  8
POINT
  10
0.10
  20
-0.00
  30
0.00
  40
0.10
  100
AcDbArc
  50
90.00
  51
180.00
  0
ARC
  8
POINT
  10
0.00
  20
0.15
  30
0.00
  40
0.10
  100
AcDbArc
  50
0.00
  51
90.00
  0
ARC
  8
POINT
  10
-0.15
  20
0.30
  30
0.00
  40
0.15
  100
AcDbArc
  50
270.00
  51
360.00
  0
LINE
  8
POINT
  10
0.00
  20
-0.35
  30
0.00
  11
0.00
  21
-0.25
  31
0.00
  0
ENDBLK
  0
BLOCK
  8
POINT
  2
P_crystal
  70
0
  10
0
  20
0
  30
0
  0
LINE
  8
POINT
  10
-0.25
  20
-0.00
  30
0.00
  11
0.25
  21
-0.00
  31
0.00
  0
LINE
  8
POINT
  10
0.00
  20
0.25
  30
0.00
  11
0.00
  21
-0.25
  31
0.00
  0
LINE
  8
POINT
  10
0.00
  20
-0.25
  30
0.00
  11
0.25
  21
-0.00
  31
0.00
  0
LINE
  8
POINT
  10
0.25
  20
-0.00
  30
0.00
  11
0.00
  21
0.25
  31
0.00
  0
LINE
  8
POINT
  10
0.00
  20
0.25
  30
0.00
  11
-0.25
  21
-0.00
  31
0.00
  0
LINE
  8
POINT
  10
-0.25
  20
-0.00
  30
0.00
  11
0.00
  21
-0.25
  31
0.00
  0
ENDBLK
  0
BLOCK
  8
POINT
  2
P_curtain
  70
0
  10
0
  20
0
  30
0
  0
LINE
  8
POINT
  10
-0.20
  20
0.20
  30
0.00
  11
0.00
  21
-0.00
  31
0.00
  0
LINE
  8
POINT
  10
0.00
  20
-0.00
  30
0.00
  11
0.20
  21
0.20
  31
0.00
  0
LINE
  8
POINT
  10
0.00
  20
-0.00
  30
0.00
  11
0.00
  21
-0.10
  31
0.00
  0
ARC
  8
POINT
  10
0.00
  20
-0.20
  30
0.00
  40
0.10
  100
AcDbArc
  50
90.00
  51
180.00
  0
ARC
  8
POINT
  10
0.00
  20
-0.20
  30
0.00
  40
0.10
  100
AcDbArc
  50
180.00
  51
270.00
  0
LINE
  8
POINT
  10
0.00
  20
-0.30
  30
0.00
  11
0.00
  21
-0.40
  31
0.00
  0
ENDBLK
  0
BLOCK
  8
POINT
  2
P_u-danger
  70
0
  10
0
  20
0
  30
0
  0
LINE
  8
POINT
  10
0.00
  20
-0.00
  30
0.00
  11
0.10
  21
0.40
  31
0.00
  0
LINE
  8
POINT
  10
0.10
  20
0.40
  30
0.00
  11
-0.10
  21
0.40
  31
0.00
  0
LINE
  8
POINT
  10
-0.10
  20
0.40
  30
0.00
  11
0.00
  21
-0.00
  31
0.00
  0
CIRCLE
  8
POINT
  10
0.00
  20
-0.20
  30
0.00
  40
0.10
  0
ENDBLK
  0
BLOCK
  8
POINT
  2
P_debris
  70
0
  10
0
  20
0
  30
0
  0
LINE
  8
POINT
  10
0.00
  20
-0.00
  30
0.00
  11
0.20
  21
-0.05
  31
0.00
  0
LINE
  8
POINT
  10
0.20
  20
-0.05
  30
0.00
  11
0.10
  21
0.15
  31
0.00
  0
LINE
  8
POINT
  10
0.10
  20
0.15
  30
0.00
  11
0.00
  21
-0.00
  31
0.00
  0
LINE
  8
POINT
  10
0.00
  20
-0.00
  30
0.00
  11
-0.20
  21
-0.00
  31
0.00
  0
LINE
  8
POINT
  10
-0.20
  20
-0.00
  30
0.00
  11
-0.10
  21
0.20
  31
0.00
  0
LINE
  8
POINT
  10
-0.10
  20
0.20
  30
0.00
  11
0.00
  21
-0.00
  31
0.00
  0
ENDBLK
  0
BLOCK
  8
POINT
  2
P_dig
  70
0
  10
0
  20
0
  30
0
  0
LINE
  8
POINT
  10
-0.25
  20
0.10
  30
0.00
  11
-0.05
  21
0.30
  31
0.00
  0
LINE
  8
POINT
  10
-0.15
  20
0.20
  30
0.00
  11
0.20
  21
-0.15
  31
0.00
  0
LINE
  8
POINT
  10
0.25
  20
0.10
  30
0.00
  11
0.05
  21
0.30
  31
0.00
  0
LINE
  8
POINT
  10
0.15
  20
0.20
  30
0.00
  11
-0.20
  21
-0.15
  31
0.00
  0
ENDBLK
  0
BLOCK
  8
POINT
  2
P_disk
  70
0
  10
0
  20
0
  30
0
  0
CIRCLE
  8
POINT
  10
0.00
  20
0.15
  30
0.00
  40
0.15
  0
LINE
  8
POINT
  10
-0.10
  20
-0.15
  30
0.00
  11
0.00
  21
-0.00
  31
0.00
  0
LINE
  8
POINT
  10
0.00
  20
-0.00
  30
0.00
  11
0.10
  21
-0.15
  31
0.00
  0
ENDBLK
  0
BLOCK
  8
POINT
  2
P_entrance
  70
0
  10
0
  20
0
  30
0
  0
LINE
  8
POINT
  10
0.00
  20
0.30
  30
0.00
  11
-0.15
  21
-0.15
  31
0.00
  0
LINE
  8
POINT
  10
-0.15
  20
-0.15
  30
0.00
  11
0.15
  21
-0.15
  31
0.00
  0
LINE
  8
POINT
  10
0.15
  20
-0.15
  30
0.00
  11
0.00
  21
0.30
  31
0.00
  0
ENDBLK
  0
BLOCK
  8
POINT
  2
P_flowstone
  70
0
  10
0
  20
0
  30
0
  0
LINE
  8
POINT
  10
-0.30
  20
0.10
  30
0.00
  11
-0.05
  21
0.10
  31
0.00
  0
LINE
  8
POINT
  10
0.10
  20
0.10
  30
0.00
  11
0.35
  21
0.10
  31
0.00
  0
LINE
  8
POINT
  10
-0.15
  20
-0.10
  30
0.00
  11
0.15
  21
-0.10
  31
0.00
  0
ENDBLK
  0
BLOCK
  8
POINT
  2
P_flute
  70
0
  10
0
  20
0
  30
0
  0
LINE
  8
POINT
  10
-0.30
  20
-0.00
  30
0.00
  11
0.30
  21
-0.00
  31
0.00
  0
ARC
  8
POINT
  10
0.00
  20
-0.00
  30
0.00
  40
0.15
  100
AcDbArc
  50
90.00
  51
180.00
  0
ARC
  8
POINT
  10
0.00
  20
-0.00
  30
0.00
  40
0.15
  100
AcDbArc
  50
0.00
  51
90.00
  0
ENDBLK
  0
BLOCK
  8
POINT
  2
P_rimstone-pool
  70
0
  10
0
  20
0
  30
0
  0
ARC
  8
POINT
  10
-0.20
  20
-0.00
  30
0.00
  40
0.00
  100
AcDbArc
  50
0.00
  51
180.00
  0
ARC
  8
POINT
  10
0.20
  20
-0.00
  30
0.00
  40
0.40
  100
AcDbArc
  50
0.00
  51
180.00
  0
ENDBLK
  0
BLOCK
  8
POINT
  2
P_gradient
  70
0
  10
0
  20
0
  30
0
  0
LINE
  8
POINT
  10
0.00
  20
-0.40
  30
0.00
  11
0.00
  21
0.20
  31
0.00
  0
LINE
  8
POINT
  10
0.00
  20
0.20
  30
0.00
  11
-0.10
  21
0.10
  31
0.00
  0
LINE
  8
POINT
  10
-0.10
  20
0.10
  30
0.00
  11
0.10
  21
0.10
  31
0.00
  0
LINE
  8
POINT
  10
0.10
  20
0.10
  30
0.00
  11
0.00
  21
0.20
  31
0.00
  0
ENDBLK
  0
BLOCK
  8
POINT
  2
P_guano
  70
0
  10
0
  20
0
  30
0
  0
ARC
  8
POINT
  10
-0.12
  20
-0.00
  30
0.00
  40
0.12
  100
AcDbArc
  50
0.00
  51
180.00
  0
LINE
  8
POINT
  10
0.00
  20
-0.00
  30
0.00
  11
0.00
  21
-0.30
  31
0.00
  0
ARC
  8
POINT
  10
0.12
  20
-0.00
  30
0.00
  40
0.12
  100
AcDbArc
  50
0.00
  51
180.00
  0
ENDBLK
  0
BLOCK
  8
POINT
  2
P_gypsum
  70
0
  10
0
  20
0
  30
0
  0
LINE
  8
POINT
  10
-0.25
  20
-0.00
  30
0.00
  11
0.00
  21
0.25
  31
0.00
  0
LINE
  8
POINT
  10
0.00
  20
0.25
  30
0.00
  11
0.00
  21
-0.25
  31
0.00
  0
LINE
  8
POINT
  10
0.00
  20
-0.25
  30
0.00
  11
0.25
  21
-0.00
  31
0.00
  0
LINE
  8
POINT
  10
0.25
  20
-0.00
  30
0.00
  11
-0.25
  21
-0.00
  31
0.00
  0
ENDBLK
  0
BLOCK
  8
POINT
  2
P_helictite
  70
0
  10
0
  20
0
  30
0
  0
LINE
  8
POINT
  10
0.00
  20
0.35
  30
0.00
  11
0.00
  21
-0.35
  31
0.00
  0
LINE
  8
POINT
  10
-0.15
  20
0.25
  30
0.00
  11
-0.15
  21
-0.00
  31
0.00
  0
LINE
  8
POINT
  10
-0.15
  20
-0.00
  30
0.00
  11
0.15
  21
-0.00
  31
0.00
  0
LINE
  8
POINT
  10
0.15
  20
-0.00
  30
0.00
  11
0.15
  21
-0.25
  31
0.00
  0
ENDBLK
  0
BLOCK
  8
POINT
  2
P_ice
  70
0
  10
0
  20
0
  30
0
  0
LINE
  8
POINT
  10
-0.25
  20
-0.00
  30
0.00
  11
0.25
  21
-0.00
  31
0.00
  0
LINE
  8
POINT
  10
0.00
  20
0.25
  30
0.00
  11
0.00
  21
-0.25
  31
0.00
  0
ENDBLK
  0
BLOCK
  8
POINT
  2
P_low-end
  70
0
  10
0
  20
0
  30
0
  0
LINE
  8
POINT
  10
-0.30
  20
0.10
  30
0.00
  11
0.30
  21
0.10
  31
0.00
  0
LINE
  8
POINT
  10
-0.30
  20
-0.10
  30
0.00
  11
0.30
  21
-0.10
  31
0.00
  0
ENDBLK
  0
BLOCK
  8
POINT
  2
P_moonmilk
  70
0
  10
0
  20
0
  30
0
  0
ARC
  8
POINT
  10
-0.28
  20
-0.05
  30
0.00
  40
0.12
  100
AcDbArc
  50
0.00
  51
180.00
  0
ARC
  8
POINT
  10
-0.03
  20
-0.05
  30
0.00
  40
0.12
  100
AcDbArc
  50
0.00
  51
180.00
  0
ARC
  8
POINT
  10
0.23
  20
-0.05
  30
0.00
  40
0.12
  100
AcDbArc
  50
0.00
  51
180.00
  0
ENDBLK
  0
BLOCK
  8
POINT
  2
P_u-mud
  70
0
  10
0
  20
0
  30
0
  0
LINE
  8
POINT
  10
-0.30
  20
-0.15
  30
0.00
  11
0.00
  21
0.15
  31
0.00
  0
LINE
  8
POINT
  10
-0.15
  20
-0.15
  30
0.00
  11
0.15
  21
0.15
  31
0.00
  0
LINE
  8
POINT
  10
0.00
  20
-0.15
  30
0.00
  11
0.30
  21
0.15
  31
0.00
  0
ENDBLK
  0
BLOCK
  8
POINT
  2
P_narrow-end
  70
0
  10
0
  20
0
  30
0
  0
LINE
  8
POINT
  10
-0.10
  20
0.30
  30
0.00
  11
-0.10
  21
-0.30
  31
0.00
  0
LINE
  8
POINT
  10
0.10
  20
0.30
  30
0.00
  11
0.10
  21
-0.30
  31
0.00
  0
ENDBLK
  0
BLOCK
  8
POINT
  2
P_paleo-material
  70
0
  10
0
  20
0
  30
0
  0
CIRCLE
  8
POINT
  10
-0.25
  20
-0.10
  30
0.00
  40
0.05
  0
CIRCLE
  8
POINT
  10
-0.20
  20
-0.20
  30
0.00
  40
0.05
  0
CIRCLE
  8
POINT
  10
0.20
  20
0.20
  30
0.00
  40
0.05
  0
CIRCLE
  8
POINT
  10
0.25
  20
0.10
  30
0.00
  40
0.05
  0
LINE
  8
POINT
  10
-0.21
  20
-0.09
  30
0.00
  11
0.17
  21
0.17
  31
0.00
  0
LINE
  8
POINT
  10
0.21
  20
0.09
  30
0.00
  11
-0.17
  21
-0.17
  31
0.00
  0
ENDBLK
  0
BLOCK
  8
POINT
  2
P_water-flow-paleo
  70
0
  10
0
  20
0
  30
0
  0
LINE
  8
POINT
  10
0.00
  20
-0.25
  30
0.00
  11
0.00
  21
0.35
  31
0.00
  0
LINE
  8
POINT
  10
0.00
  20
0.35
  30
0.00
  11
0.10
  21
0.25
  31
0.00
  0
LINE
  8
POINT
  10
0.00
  20
0.35
  30
0.00
  11
-0.10
  21
0.25
  31
0.00
  0
ARC
  8
POINT
  10
0.00
  20
-0.00
  30
0.00
  40
0.15
  100
AcDbArc
  50
90.00
  51
180.00
  0
ARC
  8
POINT
  10
0.00
  20
-0.00
  30
0.00
  40
0.15
  100
AcDbArc
  50
0.00
  51
90.00
  0
ENDBLK
  0
BLOCK
  8
POINT
  2
P_pebbles
  70
0
  10
0
  20
0
  30
0
  0
CIRCLE
  8
POINT
  10
-0.15
  20
-0.05
  30
0.00
  40
0.10
  0
CIRCLE
  8
POINT
  10
0.20
  20
-0.15
  30
0.00
  40
0.10
  0
CIRCLE
  8
POINT
  10
0.15
  20
0.15
  30
0.00
  40
0.10
  0
ENDBLK
  0
BLOCK
  8
POINT
  2
P_u-pendant
  70
0
  10
0
  20
0
  30
0
  0
ARC
  8
POINT
  10
-0.20
  20
0.20
  30
0.00
  40
0.10
  100
AcDbArc
  50
90.00
  51
270.00
  0
ARC
  8
POINT
  10
0.00
  20
0.10
  30
0.00
  40
0.20
  100
AcDbArc
  50
180.00
  51
270.00
  0
ARC
  8
POINT
  10
0.20
  20
-0.30
  30
0.00
  40
0.20
  100
AcDbArc
  50
90.00
  51
180.00
  0
ARC
  8
POINT
  10
0.20
  20
0.20
  30
0.00
  40
0.10
  100
AcDbArc
  50
90.00
  51
270.00
  0
ENDBLK
  0
BLOCK
  8
POINT
  2
P_pillar
  70
0
  10
0
  20
0
  30
0
  0
LINE
  8
POINT
  10
-0.15
  20
0.35
  30
0.00
  11
0.00
  21
0.20
  31
0.00
  0
LINE
  8
POINT
  10
0.00
  20
0.20
  30
0.00
  11
0.00
  21
-0.20
  31
0.00
  0
LINE
  8
POINT
  10
0.00
  20
-0.20
  30
0.00
  11
-0.15
  21
-0.35
  31
0.00
  0
LINE
  8
POINT
  10
0.00
  20
-0.20
  30
0.00
  11
0.15
  21
-0.35
  31
0.00
  0
LINE
  8
POINT
  10
0.00
  20
0.20
  30
0.00
  11
0.15
  21
0.35
  31
0.00
  0
ENDBLK
  0
BLOCK
  8
POINT
  2
P_pillars
  70
0
  10
0
  20
0
  30
0
  0
LINE
  8
POINT
  10
-0.40
  20
0.50
  30
0.00
  11
-0.30
  21
0.40
  31
0.00
  0
LINE
  8
POINT
  10
-0.30
  20
0.40
  30
0.00
  11
-0.20
  21
0.50
  31
0.00
  0
LINE
  8
POINT
  10
-0.30
  20
0.40
  30
0.00
  11
-0.30
  21
-0.20
  31
0.00
  0
LINE
  8
POINT
  10
-0.40
  20
-0.30
  30
0.00
  11
-0.30
  21
-0.20
  31
0.00
  0
LINE
  8
POINT
  10
-0.30
  20
-0.20
  30
0.00
  11
-0.20
  21
-0.30
  31
0.00
  0
LINE
  8
POINT
  10
-0.20
  20
0.30
  30
0.00
  11
-0.10
  21
0.20
  31
0.00
  0
LINE
  8
POINT
  10
-0.10
  20
0.20
  30
0.00
  11
0.00
  21
0.30
  31
0.00
  0
LINE
  8
POINT
  10
-0.10
  20
0.20
  30
0.00
  11
-0.10
  21
-0.40
  31
0.00
  0
LINE
  8
POINT
  10
-0.20
  20
-0.50
  30
0.00
  11
-0.10
  21
-0.40
  31
0.00
  0
LINE
  8
POINT
  10
-0.10
  20
-0.40
  30
0.00
  11
0.00
  21
-0.50
  31
0.00
  0
LINE
  8
POINT
  10
0.00
  20
0.50
  30
0.00
  11
0.10
  21
0.40
  31
0.00
  0
LINE
  8
POINT
  10
0.10
  20
0.40
  30
0.00
  11
0.20
  21
0.50
  31
0.00
  0
LINE
  8
POINT
  10
0.10
  20
0.40
  30
0.00
  11
0.10
  21
-0.20
  31
0.00
  0
LINE
  8
POINT
  10
0.00
  20
-0.30
  30
0.00
  11
0.10
  21
-0.20
  31
0.00
  0
LINE
  8
POINT
  10
0.10
  20
-0.20
  30
0.00
  11
0.20
  21
-0.30
  31
0.00
  0
LINE
  8
POINT
  10
0.20
  20
0.30
  30
0.00
  11
0.30
  21
0.20
  31
0.00
  0
LINE
  8
POINT
  10
0.30
  20
0.20
  30
0.00
  11
0.40
  21
0.30
  31
0.00
  0
LINE
  8
POINT
  10
0.30
  20
0.20
  30
0.00
  11
0.30
  21
-0.40
  31
0.00
  0
LINE
  8
POINT
  10
0.20
  20
-0.50
  30
0.00
  11
0.30
  21
-0.40
  31
0.00
  0
LINE
  8
POINT
  10
0.30
  20
-0.40
  30
0.00
  11
0.40
  21
-0.50
  31
0.00
  0
ENDBLK
  0
BLOCK
  8
POINT
  2
P_popcorn
  70
0
  10
0
  20
0
  30
0
  0
LINE
  8
POINT
  10
-0.35
  20
-0.20
  30
0.00
  11
0.35
  21
-0.20
  31
0.00
  0
LINE
  8
POINT
  10
-0.30
  20
-0.20
  30
0.00
  11
-0.30
  21
0.05
  31
0.00
  0
CIRCLE
  8
POINT
  10
-0.30
  20
0.10
  30
0.00
  40
0.05
  0
LINE
  8
POINT
  10
0.00
  20
-0.20
  30
0.00
  11
0.00
  21
0.05
  31
0.00
  0
CIRCLE
  8
POINT
  10
0.00
  20
0.10
  30
0.00
  40
0.05
  0
LINE
  8
POINT
  10
0.30
  20
-0.20
  30
0.00
  11
0.30
  21
0.05
  31
0.00
  0
CIRCLE
  8
POINT
  10
0.30
  20
0.10
  30
0.00
  40
0.05
  0
ENDBLK
  0
BLOCK
  8
POINT
  2
P_raft
  70
0
  10
0
  20
0
  30
0
  0
ARC
  8
POINT
  10
0.00
  20
-0.00
  30
0.00
  40
0.25
  100
AcDbArc
  50
0.00
  51
180.00
  0
ENDBLK
  0
BLOCK
  8
POINT
  2
P_raftcone
  70
0
  10
0
  20
0
  30
0
  0
LINE
  8
POINT
  10
-0.15
  20
-0.20
  30
0.00
  11
0.00
  21
0.20
  31
0.00
  0
LINE
  8
POINT
  10
0.00
  20
0.20
  30
0.00
  11
0.15
  21
-0.20
  31
0.00
  0
ENDBLK
  0
BLOCK
  8
POINT
  2
P_root
  70
0
  10
0
  20
0
  30
0
  0
LINE
  8
POINT
  10
0.00
  20
0.40
  30
0.00
  11
0.00
  21
-0.20
  31
0.00
  0
LINE
  8
POINT
  10
0.00
  20
-0.20
  30
0.00
  11
0.15
  21
-0.35
  31
0.00
  0
LINE
  8
POINT
  10
0.00
  20
-0.05
  30
0.00
  11
0.15
  21
-0.20
  31
0.00
  0
LINE
  8
POINT
  10
0.00
  20
0.10
  30
0.00
  11
0.15
  21
-0.05
  31
0.00
  0
ENDBLK
  0
BLOCK
  8
POINT
  2
P_sand
  70
0
  10
0
  20
0
  30
0
  0
LINE
  8
POINT
  10
-0.35
  20
-0.15
  30
0.00
  11
-0.25
  21
-0.15
  31
0.00
  0
LINE
  8
POINT
  10
-0.25
  20
-0.15
  30
0.00
  11
-0.30
  21
-0.05
  31
0.00
  0
LINE
  8
POINT
  10
-0.30
  20
-0.05
  30
0.00
  11
-0.35
  21
-0.15
  31
0.00
  0
LINE
  8
POINT
  10
0.35
  20
-0.15
  30
0.00
  11
0.25
  21
-0.15
  31
0.00
  0
LINE
  8
POINT
  10
0.25
  20
-0.15
  30
0.00
  11
0.30
  21
-0.05
  31
0.00
  0
LINE
  8
POINT
  10
0.30
  20
-0.05
  30
0.00
  11
0.35
  21
-0.15
  31
0.00
  0
LINE
  8
POINT
  10
-0.05
  20
0.15
  30
0.00
  11
0.05
  21
0.15
  31
0.00
  0
LINE
  8
POINT
  10
0.05
  20
0.15
  30
0.00
  11
0.00
  21
0.25
  31
0.00
  0
LINE
  8
POINT
  10
0.00
  20
0.25
  30
0.00
  11
-0.05
  21
0.15
  31
0.00
  0
ENDBLK
  0
BLOCK
  8
POINT
  2
P_scallop
  70
0
  10
0
  20
0
  30
0
  0
LINE
  8
POINT
  10
0.00
  20
-0.30
  30
0.00
  11
-0.15
  21
-0.00
  31
0.00
  0
ARC
  8
POINT
  10
0.00
  20
-0.00
  30
0.00
  40
0.15
  100
AcDbArc
  50
90.00
  51
180.00
  0
ARC
  8
POINT
  10
0.00
  20
-0.00
  30
0.00
  40
0.15
  100
AcDbArc
  50
0.00
  51
90.00
  0
LINE
  8
POINT
  10
0.15
  20
-0.00
  30
0.00
  11
0.00
  21
-0.30
  31
0.00
  0
ENDBLK
  0
BLOCK
  8
POINT
  2
P_section
  70
0
  10
0
  20
0
  30
0
  0
LINE
  8
POINT
  10
-0.25
  20
0.25
  30
0.00
  11
-0.25
  21
-0.25
  31
0.00
  0
LINE
  8
POINT
  10
-0.25
  20
-0.25
  30
0.00
  11
0.25
  21
-0.25
  31
0.00
  0
LINE
  8
POINT
  10
0.25
  20
-0.25
  30
0.00
  11
0.25
  21
0.25
  31
0.00
  0
LINE
  8
POINT
  10
0.25
  20
0.25
  30
0.00
  11
-0.25
  21
0.25
  31
0.00
  0
ENDBLK
  0
BLOCK
  8
POINT
  2
P_sink
  70
0
  10
0
  20
0
  30
0
  0
CIRCLE
  8
POINT
  10
0.00
  20
-0.00
  30
0.00
  40
0.25
  0
CIRCLE
  8
POINT
  10
0.00
  20
-0.00
  30
0.00
  40
0.05
  0
ENDBLK
  0
BLOCK
  8
POINT
  2
P_snow
  70
0
  10
0
  20
0
  30
0
  0
LINE
  8
POINT
  10
0.00
  20
0.25
  30
0.00
  11
0.00
  21
-0.25
  31
0.00
  0
LINE
  8
POINT
  10
-0.20
  20
0.15
  30
0.00
  11
0.20
  21
-0.15
  31
0.00
  0
LINE
  8
POINT
  10
-0.20
  20
-0.15
  30
0.00
  11
0.20
  21
0.15
  31
0.00
  0
ENDBLK
  0
BLOCK
  8
POINT
  2
P_soda-straw
  70
0
  10
0
  20
0
  30
0
  0
LINE
  8
POINT
  10
-0.30
  20
0.10
  30
0.00
  11
0.30
  21
0.10
  31
0.00
  0
LINE
  8
POINT
  10
-0.20
  20
0.10
  30
0.00
  11
-0.20
  21
-0.10
  31
0.00
  0
LINE
  8
POINT
  10
0.00
  20
0.10
  30
0.00
  11
0.00
  21
-0.30
  31
0.00
  0
LINE
  8
POINT
  10
0.20
  20
0.10
  30
0.00
  11
0.20
  21
-0.20
  31
0.00
  0
ENDBLK
  0
BLOCK
  8
POINT
  2
P_spring
  70
0
  10
0
  20
0
  30
0
  0
CIRCLE
  8
POINT
  10
0.00
  20
-0.00
  30
0.00
  40
0.20
  0
CIRCLE
  8
POINT
  10
0.00
  20
-0.00
  30
0.00
  40
0.05
  0
LINE
  8
POINT
  10
0.00
  20
-0.00
  30
0.00
  11
0.00
  21
0.40
  31
0.00
  0
LINE
  8
POINT
  10
0.00
  20
0.40
  30
0.00
  11
0.15
  21
0.25
  31
0.00
  0
LINE
  8
POINT
  10
0.00
  20
0.40
  30
0.00
  11
-0.15
  21
0.25
  31
0.00
  0
ENDBLK
  0
BLOCK
  8
POINT
  2
P_stalactite
  70
0
  10
0
  20
0
  30
0
  0
LINE
  8
POINT
  10
-0.20
  20
0.20
  30
0.00
  11
0.00
  21
-0.00
  31
0.00
  0
LINE
  8
POINT
  10
0.00
  20
-0.00
  30
0.00
  11
0.20
  21
0.20
  31
0.00
  0
LINE
  8
POINT
  10
0.00
  20
-0.00
  30
0.00
  11
0.00
  21
-0.30
  31
0.00
  0
ENDBLK
  0
BLOCK
  8
POINT
  2
P_stalactites
  70
0
  10
0
  20
0
  30
0
  0
LINE
  8
POINT
  10
-0.40
  20
0.40
  30
0.00
  11
-0.30
  21
0.30
  31
0.00
  0
LINE
  8
POINT
  10
-0.30
  20
0.30
  30
0.00
  11
-0.20
  21
0.40
  31
0.00
  0
LINE
  8
POINT
  10
-0.30
  20
0.30
  30
0.00
  11
-0.30
  21
-0.00
  31
0.00
  0
LINE
  8
POINT
  10
-0.20
  20
0.20
  30
0.00
  11
-0.10
  21
0.10
  31
0.00
  0
LINE
  8
POINT
  10
-0.10
  20
0.10
  30
0.00
  11
0.00
  21
0.20
  31
0.00
  0
LINE
  8
POINT
  10
-0.10
  20
0.10
  30
0.00
  11
-0.10
  21
-0.20
  31
0.00
  0
LINE
  8
POINT
  10
0.00
  20
0.40
  30
0.00
  11
0.10
  21
0.30
  31
0.00
  0
LINE
  8
POINT
  10
0.10
  20
0.30
  30
0.00
  11
0.20
  21
0.40
  31
0.00
  0
LINE
  8
POINT
  10
0.10
  20
0.30
  30
0.00
  11
0.10
  21
-0.00
  31
0.00
  0
LINE
  8
POINT
  10
0.20
  20
0.20
  30
0.00
  11
0.30
  21
0.10
  31
0.00
  0
LINE
  8
POINT
  10
0.30
  20
0.10
  30
0.00
  11
0.40
  21
0.20
  31
0.00
  0
LINE
  8
POINT
  10
0.30
  20
0.10
  30
0.00
  11
0.30
  21
-0.20
  31
0.00
  0
ENDBLK
  0
BLOCK
  8
POINT
  2
P_stalagmite
  70
0
  10
0
  20
0
  30
0
  0
LINE
  8
POINT
  10
-0.20
  20
-0.20
  30
0.00
  11
0.00
  21
-0.00
  31
0.00
  0
LINE
  8
POINT
  10
0.00
  20
-0.00
  30
0.00
  11
0.20
  21
-0.20
  31
0.00
  0
LINE
  8
POINT
  10
0.00
  20
-0.00
  30
0.00
  11
0.00
  21
0.30
  31
0.00
  0
ENDBLK
  0
BLOCK
  8
POINT
  2
P_stalagmites
  70
0
  10
0
  20
0
  30
0
  0
LINE
  8
POINT
  10
-0.40
  20
-0.40
  30
0.00
  11
-0.30
  21
-0.30
  31
0.00
  0
LINE
  8
POINT
  10
-0.30
  20
-0.30
  30
0.00
  11
-0.20
  21
-0.40
  31
0.00
  0
LINE
  8
POINT
  10
-0.30
  20
-0.30
  30
0.00
  11
-0.30
  21
-0.00
  31
0.00
  0
LINE
  8
POINT
  10
-0.20
  20
-0.20
  30
0.00
  11
-0.10
  21
-0.10
  31
0.00
  0
LINE
  8
POINT
  10
-0.10
  20
-0.10
  30
0.00
  11
0.00
  21
-0.20
  31
0.00
  0
LINE
  8
POINT
  10
-0.10
  20
-0.10
  30
0.00
  11
-0.10
  21
0.20
  31
0.00
  0
LINE
  8
POINT
  10
0.00
  20
-0.40
  30
0.00
  11
0.10
  21
-0.30
  31
0.00
  0
LINE
  8
POINT
  10
0.10
  20
-0.30
  30
0.00
  11
0.20
  21
-0.40
  31
0.00
  0
LINE
  8
POINT
  10
0.10
  20
-0.30
  30
0.00
  11
0.10
  21
-0.00
  31
0.00
  0
LINE
  8
POINT
  10
0.20
  20
-0.20
  30
0.00
  11
0.30
  21
-0.10
  31
0.00
  0
LINE
  8
POINT
  10
0.30
  20
-0.10
  30
0.00
  11
0.40
  21
-0.20
  31
0.00
  0
LINE
  8
POINT
  10
0.30
  20
-0.10
  30
0.00
  11
0.30
  21
0.20
  31
0.00
  0
ENDBLK
  0
BLOCK
  8
POINT
  2
P_wall-calcite
  70
0
  10
0
  20
0
  30
0
  0
LINE
  8
POINT
  10
-0.30
  20
-0.10
  30
0.00
  11
-0.15
  21
0.10
  31
0.00
  0
LINE
  8
POINT
  10
-0.15
  20
0.10
  30
0.00
  11
0.00
  21
-0.10
  31
0.00
  0
LINE
  8
POINT
  10
0.00
  20
-0.10
  30
0.00
  11
0.15
  21
0.10
  31
0.00
  0
LINE
  8
POINT
  10
0.15
  20
0.10
  30
0.00
  11
0.30
  21
-0.10
  31
0.00
  0
ENDBLK
  0
BLOCK
  8
POINT
  2
P_water
  70
0
  10
0
  20
0
  30
0
  0
LINE
  8
POINT
  10
-0.30
  20
0.15
  30
0.00
  11
-0.05
  21
0.15
  31
0.00
  0
LINE
  8
POINT
  10
0.10
  20
0.15
  30
0.00
  11
0.30
  21
0.15
  31
0.00
  0
LINE
  8
POINT
  10
-0.20
  20
-0.00
  30
0.00
  11
0.05
  21
-0.00
  31
0.00
  0
LINE
  8
POINT
  10
0.15
  20
-0.00
  30
0.00
  11
0.35
  21
-0.00
  31
0.00
  0
LINE
  8
POINT
  10
-0.15
  20
-0.15
  30
0.00
  11
0.25
  21
-0.15
  31
0.00
  0
ENDBLK
  0
BLOCK
  8
POINT
  2
P_u-water-drip
  70
0
  10
0
  20
0
  30
0
  0
LINE
  8
POINT
  10
0.00
  20
0.40
  30
0.00
  11
0.00
  21
0.20
  31
0.00
  0
LINE
  8
POINT
  10
0.00
  20
0.10
  30
0.00
  11
0.00
  21
-0.10
  31
0.00
  0
LINE
  8
POINT
  10
0.00
  20
-0.20
  30
0.00
  11
0.00
  21
-0.40
  31
0.00
  0
LINE
  8
POINT
  10
0.00
  20
-0.40
  30
0.00
  11
0.20
  21
-0.20
  31
0.00
  0
LINE
  8
POINT
  10
0.00
  20
-0.40
  30
0.00
  11
-0.20
  21
-0.20
  31
0.00
  0
ENDBLK
  0
BLOCK
  8
POINT
  2
P_water-flow
  70
0
  10
0
  20
0
  30
0
  0
ARC
  8
POINT
  10
0.00
  20
-0.08
  30
0.00
  40
0.08
  100
AcDbArc
  50
90.00
  51
270.00
  0
ARC
  8
POINT
  10
0.00
  20
0.08
  30
0.00
  40
0.08
  100
AcDbArc
  50
270.00
  51
450.00
  0
ARC
  8
POINT
  10
0.00
  20
0.23
  30
0.00
  40
0.08
  100
AcDbArc
  50
90.00
  51
270.00
  0
ARC
  8
POINT
  10
0.00
  20
0.38
  30
0.00
  40
0.08
  100
AcDbArc
  50
270.00
  51
360.00
  0
ARC
  8
POINT
  10
0.00
  20
0.38
  30
0.00
  40
0.08
  100
AcDbArc
  50
0.00
  51
90.00
  0
LINE
  8
POINT
  10
0.00
  20
0.50
  30
0.00
  11
0.20
  21
0.30
  31
0.00
  0
LINE
  8
POINT
  10
0.00
  20
0.50
  30
0.00
  11
-0.20
  21
0.30
  31
0.00
  0
ENDBLK
  0
ENDSEC
  0
SECTION
  2
ENTITIES
  0
LINE
  8
REF
  10
-853.22
  20
-538.23
  30
0.00
  11
-653.22
  21
-538.23
  31
0.00
  0
LINE
  8
REF
  10
-853.22
  20
-538.23
  30
0.00
  11
-853.22
  21
-338.23
  31
0.00
  0
TEXT
  8
REF
  10
-652.22
  20
-538.23
  30
0.00
  40
6.00
  50
0.00
  51
0.00
  1
10
  7
MyStyle
  100
AcDbText
  0
TEXT
  8
REF
  10
-853.22
  20
-337.23
  30
0.00
  40
6.00
  50
0.00
  51
0.00
  1
10
  7
MyStyle
  100
AcDbText
  0
LINE
  8
LEG
  10
163.21
  20
-51.80
  30
0.00
  11
100.00
  21
-120.00
  31
0.00
  0
LINE
  8
LEG
  10
1.60
  20
-108.23
  30
0.00
  11
100.00
  21
-120.00
  31
0.00
  0
LINE
  8
LEG
  10
1.60
  20
-108.23
  30
0.00
  11
-99.99
  21
-95.18
  31
0.00
  0
LINE
  8
LEG
  10
1.60
  20
-108.23
  30
0.00
  11
-66.05
  21
-125.62
  31
0.00
  0
LINE
  8
LEG
  10
-66.05
  20
-125.62
  30
0.00
  11
-205.99
  21
-187.33
  31
0.00
  0
LINE
  8
LEG
  10
-205.99
  20
-187.33
  30
0.00
  11
-259.98
  21
-226.80
  31
0.00
  0
LINE
  8
LEG
  10
-259.98
  20
-226.80
  30
0.00
  11
-395.70
  21
-292.70
  31
0.00
  0
LINE
  8
LEG
  10
-395.70
  20
-292.70
  30
0.00
  11
-474.18
  21
-306.78
  31
0.00
  0
LINE
  8
LEG
  10
-474.18
  20
-306.78
  30
0.00
  11
-543.44
  21
-351.45
  31
0.00
  0
LINE
  8
LEG
  10
-474.18
  20
-306.78
  30
0.00
  11
-500.74
  21
-317.00
  31
0.00
  0
LINE
  8
LEG
  10
-500.74
  20
-317.00
  30
0.00
  11
-547.19
  21
-351.03
  31
0.00
  0
LINE
  8
LEG
  10
-599.36
  20
-408.90
  30
0.00
  11
-543.44
  21
-351.45
  31
0.00
  0
LINE
  8
LEG
  10
-672.23
  20
-507.49
  30
0.00
  11
-599.36
  21
-408.90
  31
0.00
  0
LINE
  8
LEG
  10
-726.93
  20
-528.47
  30
0.00
  11
-672.23
  21
-507.49
  31
0.00
  0
LINE
  8
LEG
  10
-749.80
  20
-483.82
  30
0.00
  11
-726.93
  21
-528.47
  31
0.00
  0
LINE
  8
LEG
  10
-827.30
  20
-450.55
  30
0.00
  11
-749.80
  21
-483.82
  31
0.00
  0
LINE
  8
LEG
  10
163.21
  20
-51.80
  30
0.00
  11
184.23
  21
-2.41
  31
0.00
  0
LINE
  8
LEG
  10
184.23
  20
-2.41
  30
0.00
  11
119.40
  21
58.55
  31
0.00
  0
LINE
  8
SPLAY
  10
184.23
  20
-2.41
  30
0.00
  11
148.07
  21
0.26
  31
0.00
  0
LINE
  8
SPLAY
  10
184.23
  20
-2.41
  30
0.00
  11
150.66
  21
63.15
  31
0.00
  0
LINE
  8
SPLAY
  10
184.23
  20
-2.41
  30
0.00
  11
178.12
  21
-263.47
  31
0.00
  0
LINE
  8
SPLAY
  10
184.23
  20
-2.41
  30
0.00
  11
181.84
  21
-13.76
  31
0.00
  0
LINE
  8
SPLAY
  10
184.23
  20
-2.41
  30
0.00
  11
173.82
  21
-11.18
  31
0.00
  0
LINE
  8
SPLAY
  10
184.23
  20
-2.41
  30
0.00
  11
194.72
  21
-151.96
  31
0.00
  0
LINE
  8
SPLAY
  10
184.23
  20
-2.41
  30
0.00
  11
210.14
  21
42.69
  31
0.00
  0
LINE
  8
SPLAY
  10
163.21
  20
-51.80
  30
0.00
  11
172.10
  21
-60.33
  31
0.00
  0
LINE
  8
SPLAY
  10
163.21
  20
-51.80
  30
0.00
  11
172.17
  21
-51.05
  31
0.00
  0
LINE
  8
SPLAY
  10
163.21
  20
-51.80
  30
0.00
  11
159.80
  21
124.34
  31
0.00
  0
LINE
  8
SPLAY
  10
163.21
  20
-51.80
  30
0.00
  11
141.72
  21
-552.18
  31
0.00
  0
LINE
  8
SPLAY
  10
163.21
  20
-51.80
  30
0.00
  11
134.75
  21
-66.03
  31
0.00
  0
LINE
  8
SPLAY
  10
163.21
  20
-51.80
  30
0.00
  11
407.37
  21
-69.59
  31
0.00
  0
LINE
  8
SPLAY
  10
100.00
  20
-120.00
  30
0.00
  11
99.68
  21
-119.78
  31
0.00
  0
LINE
  8
SPLAY
  10
100.00
  20
-120.00
  30
0.00
  11
110.34
  21
-122.11
  31
0.00
  0
LINE
  8
SPLAY
  10
100.00
  20
-120.00
  30
0.00
  11
104.04
  21
-96.24
  31
0.00
  0
LINE
  8
SPLAY
  10
100.00
  20
-120.00
  30
0.00
  11
94.15
  21
-133.09
  31
0.00
  0
LINE
  8
SPLAY
  10
100.00
  20
-120.00
  30
0.00
  11
421.61
  21
-56.19
  31
0.00
  0
LINE
  8
SPLAY
  10
100.00
  20
-120.00
  30
0.00
  11
208.65
  21
-156.24
  31
0.00
  0
LINE
  8
SPLAY
  10
100.00
  20
-120.00
  30
0.00
  11
468.19
  21
-82.12
  31
0.00
  0
LINE
  8
SPLAY
  10
100.00
  20
-120.00
  30
0.00
  11
323.27
  21
-88.85
  31
0.00
  0
LINE
  8
SPLAY
  10
1.60
  20
-108.23
  30
0.00
  11
-9.40
  21
-109.73
  31
0.00
  0
LINE
  8
SPLAY
  10
1.60
  20
-108.23
  30
0.00
  11
-4.94
  21
-109.28
  31
0.00
  0
LINE
  8
SPLAY
  10
1.60
  20
-108.23
  30
0.00
  11
1.90
  21
-97.40
  31
0.00
  0
LINE
  8
SPLAY
  10
1.60
  20
-108.23
  30
0.00
  11
-4.73
  21
-140.41
  31
0.00
  0
LINE
  8
SPLAY
  10
-99.99
  20
-95.18
  30
0.00
  11
-96.08
  21
-95.70
  31
0.00
  0
LINE
  8
SPLAY
  10
-99.99
  20
-95.18
  30
0.00
  11
-105.97
  21
-84.67
  31
0.00
  0
LINE
  8
SPLAY
  10
-99.99
  20
-95.18
  30
0.00
  11
-99.99
  21
35.84
  31
0.00
  0
LINE
  8
SPLAY
  10
-99.99
  20
-95.18
  30
0.00
  11
-99.46
  21
-123.67
  31
0.00
  0
LINE
  8
SPLAY
  10
-99.99
  20
-95.18
  30
0.00
  11
-49.58
  21
-95.33
  31
0.00
  0
LINE
  8
SPLAY
  10
-99.99
  20
-95.18
  30
0.00
  11
18.70
  21
-114.19
  31
0.00
  0
LINE
  8
SPLAY
  10
-99.99
  20
-95.18
  30
0.00
  11
-66.00
  21
-98.22
  31
0.00
  0
LINE
  8
SPLAY
  10
-99.99
  20
-95.18
  30
0.00
  11
-50.68
  21
-108.79
  31
0.00
  0
LINE
  8
SPLAY
  10
-66.05
  20
-125.62
  30
0.00
  11
-53.92
  21
-129.77
  31
0.00
  0
LINE
  8
SPLAY
  10
-66.05
  20
-125.62
  30
0.00
  11
-55.94
  21
-128.01
  31
0.00
  0
LINE
  8
SPLAY
  10
-66.05
  20
-125.62
  30
0.00
  11
-65.77
  21
-125.48
  31
0.00
  0
LINE
  8
SPLAY
  10
-66.05
  20
-125.62
  30
0.00
  11
-63.68
  21
-141.60
  31
0.00
  0
LINE
  8
SPLAY
  10
-66.05
  20
-125.62
  30
0.00
  11
-70.84
  21
-114.99
  31
0.00
  0
LINE
  8
SPLAY
  10
-66.05
  20
-125.62
  30
0.00
  11
-100.65
  21
-121.21
  31
0.00
  0
LINE
  8
SPLAY
  10
-205.99
  20
-187.33
  30
0.00
  11
-198.47
  21
-188.90
  31
0.00
  0
LINE
  8
SPLAY
  10
-205.99
  20
-187.33
  30
0.00
  11
-217.66
  21
-173.64
  31
0.00
  0
LINE
  8
SPLAY
  10
-205.99
  20
-187.33
  30
0.00
  11
-193.13
  21
-249.10
  31
0.00
  0
LINE
  8
SPLAY
  10
-205.99
  20
-187.33
  30
0.00
  11
-240.80
  21
-211.87
  31
0.00
  0
LINE
  8
SPLAY
  10
-205.99
  20
-187.33
  30
0.00
  11
-180.59
  21
-179.83
  31
0.00
  0
LINE
  8
SPLAY
  10
-259.98
  20
-226.80
  30
0.00
  11
-263.46
  21
-228.05
  31
0.00
  0
LINE
  8
SPLAY
  10
-259.98
  20
-226.80
  30
0.00
  11
-262.12
  21
-255.31
  31
0.00
  0
LINE
  8
SPLAY
  10
-259.98
  20
-226.80
  30
0.00
  11
-270.97
  21
-208.38
  31
0.00
  0
LINE
  8
SPLAY
  10
-259.98
  20
-226.80
  30
0.00
  11
-291.90
  21
-225.68
  31
0.00
  0
LINE
  8
SPLAY
  10
-259.98
  20
-226.80
  30
0.00
  11
-220.29
  21
-247.83
  31
0.00
  0
LINE
  8
SPLAY
  10
-259.98
  20
-226.80
  30
0.00
  11
-226.66
  21
-234.05
  31
0.00
  0
LINE
  8
SPLAY
  10
-395.70
  20
-292.70
  30
0.00
  11
-391.40
  21
-293.65
  31
0.00
  0
LINE
  8
SPLAY
  10
-395.70
  20
-292.70
  30
0.00
  11
-363.78
  21
-292.48
  31
0.00
  0
LINE
  8
SPLAY
  10
-395.70
  20
-292.70
  30
0.00
  11
-391.91
  21
-274.96
  31
0.00
  0
LINE
  8
SPLAY
  10
-395.70
  20
-292.70
  30
0.00
  11
-396.73
  21
-315.65
  31
0.00
  0
LINE
  8
SPLAY
  10
-395.70
  20
-292.70
  30
0.00
  11
-341.58
  21
-303.55
  31
0.00
  0
LINE
  8
SPLAY
  10
-395.70
  20
-292.70
  30
0.00
  11
-457.04
  21
-314.22
  31
0.00
  0
LINE
  8
SPLAY
  10
-474.18
  20
-306.78
  30
0.00
  11
-491.07
  21
-281.18
  31
0.00
  0
LINE
  8
SPLAY
  10
-474.18
  20
-306.78
  30
0.00
  11
-523.32
  21
-314.09
  31
0.00
  0
LINE
  8
SPLAY
  10
-474.18
  20
-306.78
  30
0.00
  11
-512.05
  21
-313.33
  31
0.00
  0
LINE
  8
SPLAY
  10
-474.18
  20
-306.78
  30
0.00
  11
-477.00
  21
-313.08
  31
0.00
  0
LINE
  8
SPLAY
  10
-474.18
  20
-306.78
  30
0.00
  11
-441.20
  21
-307.23
  31
0.00
  0
LINE
  8
SPLAY
  10
-474.18
  20
-306.78
  30
0.00
  11
-445.53
  21
-284.43
  31
0.00
  0
LINE
  8
SPLAY
  10
-474.18
  20
-306.78
  30
0.00
  11
-527.96
  21
-316.26
  31
0.00
  0
LINE
  8
SPLAY
  10
-474.18
  20
-306.78
  30
0.00
  11
-499.80
  21
-312.48
  31
0.00
  0
LINE
  8
SPLAY
  10
-543.44
  20
-351.45
  30
0.00
  11
-548.09
  21
-350.32
  31
0.00
  0
LINE
  8
SPLAY
  10
-543.44
  20
-351.45
  30
0.00
  11
-548.19
  21
-361.75
  31
0.00
  0
LINE
  8
SPLAY
  10
-543.44
  20
-351.45
  30
0.00
  11
-562.47
  21
-352.63
  31
0.00
  0
LINE
  8
SPLAY
  10
-543.44
  20
-351.45
  30
0.00
  11
-548.88
  21
-330.57
  31
0.00
  0
LINE
  8
SPLAY
  10
-543.44
  20
-351.45
  30
0.00
  11
-522.18
  21
-345.30
  31
0.00
  0
LINE
  8
SPLAY
  10
-474.18
  20
-306.78
  30
0.00
  11
-490.60
  21
-316.22
  31
0.00
  0
LINE
  8
SPLAY
  10
-500.74
  20
-317.00
  30
0.00
  11
-494.74
  21
-320.27
  31
0.00
  0
LINE
  8
SPLAY
  10
-500.74
  20
-317.00
  30
0.00
  11
-522.70
  21
-323.61
  31
0.00
  0
LINE
  8
SPLAY
  10
-500.74
  20
-317.00
  30
0.00
  11
-526.19
  21
-323.64
  31
0.00
  0
LINE
  8
SPLAY
  10
-500.74
  20
-317.00
  30
0.00
  11
-558.53
  21
-338.95
  31
0.00
  0
LINE
  8
SPLAY
  10
-500.74
  20
-317.00
  30
0.00
  11
-508.37
  21
-323.63
  31
0.00
  0
LINE
  8
SPLAY
  10
-500.74
  20
-317.00
  30
0.00
  11
-531.54
  21
-381.23
  31
0.00
  0
LINE
  8
SPLAY
  10
-500.74
  20
-317.00
  30
0.00
  11
-501.78
  21
-285.80
  31
0.00
  0
LINE
  8
SPLAY
  10
-500.74
  20
-317.00
  30
0.00
  11
-514.84
  21
-319.96
  31
0.00
  0
LINE
  8
SPLAY
  10
-547.19
  20
-351.03
  30
0.00
  11
-537.41
  21
-350.85
  31
0.00
  0
LINE
  8
SPLAY
  10
-547.19
  20
-351.03
  30
0.00
  11
-554.48
  21
-353.01
  31
0.00
  0
LINE
  8
SPLAY
  10
-547.19
  20
-351.03
  30
0.00
  11
-557.28
  21
-315.29
  31
0.00
  0
LINE
  8
SPLAY
  10
-547.19
  20
-351.03
  30
0.00
  11
-547.01
  21
-378.49
  31
0.00
  0
LINE
  8
SPLAY
  10
-547.19
  20
-351.03
  30
0.00
  11
-519.87
  21
-325.32
  31
0.00
  0
LINE
  8
SPLAY
  10
-547.19
  20
-351.03
  30
0.00
  11
-593.10
  21
-411.81
  31
0.00
  0
LINE
  8
SPLAY
  10
-547.19
  20
-351.03
  30
0.00
  11
-587.54
  21
-370.60
  31
0.00
  0
LINE
  8
SPLAY
  10
-547.19
  20
-351.03
  30
0.00
  11
-592.15
  21
-465.02
  31
0.00
  0
LINE
  8
SPLAY
  10
-547.19
  20
-351.03
  30
0.00
  11
-570.96
  21
-339.89
  31
0.00
  0
LINE
  8
SPLAY
  10
-547.19
  20
-351.03
  30
0.00
  11
-538.53
  21
-378.38
  31
0.00
  0
LINE
  8
SPLAY
  10
-599.36
  20
-408.90
  30
0.00
  11
-603.19
  21
-406.65
  31
0.00
  0
LINE
  8
SPLAY
  10
-599.36
  20
-408.90
  30
0.00
  11
-603.68
  21
-370.90
  31
0.00
  0
LINE
  8
SPLAY
  10
-599.36
  20
-408.90
  30
0.00
  11
-578.80
  21
-354.17
  31
0.00
  0
LINE
  8
SPLAY
  10
-599.36
  20
-408.90
  30
0.00
  11
-593.81
  21
-389.68
  31
0.00
  0
LINE
  8
SPLAY
  10
-599.36
  20
-408.90
  30
0.00
  11
-619.06
  21
-412.23
  31
0.00
  0
LINE
  8
SPLAY
  10
-599.36
  20
-408.90
  30
0.00
  11
-629.68
  21
-425.25
  31
0.00
  0
LINE
  8
SPLAY
  10
-599.36
  20
-408.90
  30
0.00
  11
-632.00
  21
-442.37
  31
0.00
  0
LINE
  8
SPLAY
  10
-599.36
  20
-408.90
  30
0.00
  11
-665.96
  21
-504.15
  31
0.00
  0
LINE
  8
SPLAY
  10
-672.23
  20
-507.49
  30
0.00
  11
-697.44
  21
-503.20
  31
0.00
  0
LINE
  8
SPLAY
  10
-672.23
  20
-507.49
  30
0.00
  11
-643.42
  21
-428.97
  31
0.00
  0
LINE
  8
SPLAY
  10
-672.23
  20
-507.49
  30
0.00
  11
-623.11
  21
-496.44
  31
0.00
  0
LINE
  8
SPLAY
  10
-672.23
  20
-507.49
  30
0.00
  11
-644.68
  21
-510.73
  31
0.00
  0
LINE
  8
SPLAY
  10
-672.23
  20
-507.49
  30
0.00
  11
-641.97
  21
-532.64
  31
0.00
  0
LINE
  8
SPLAY
  10
-672.23
  20
-507.49
  30
0.00
  11
-708.52
  21
-538.19
  31
0.00
  0
LINE
  8
SPLAY
  10
-672.23
  20
-507.49
  30
0.00
  11
-710.59
  21
-520.62
  31
0.00
  0
LINE
  8
SPLAY
  10
-672.23
  20
-507.49
  30
0.00
  11
-736.94
  21
-534.27
  31
0.00
  0
LINE
  8
SPLAY
  10
-672.23
  20
-507.49
  30
0.00
  11
-697.65
  21
-524.37
  31
0.00
  0
LINE
  8
SPLAY
  10
-726.93
  20
-528.47
  30
0.00
  11
-715.99
  21
-520.16
  31
0.00
  0
LINE
  8
SPLAY
  10
-726.93
  20
-528.47
  30
0.00
  11
-707.29
  21
-539.00
  31
0.00
  0
LINE
  8
SPLAY
  10
-726.93
  20
-528.47
  30
0.00
  11
-724.23
  21
-524.52
  31
0.00
  0
LINE
  8
SPLAY
  10
-726.93
  20
-528.47
  30
0.00
  11
-726.95
  21
-505.20
  31
0.00
  0
LINE
  8
SPLAY
  10
-726.93
  20
-528.47
  30
0.00
  11
-726.24
  21
-417.48
  31
0.00
  0
LINE
  8
SPLAY
  10
-726.93
  20
-528.47
  30
0.00
  11
-683.08
  21
-359.54
  31
0.00
  0
LINE
  8
SPLAY
  10
-726.93
  20
-528.47
  30
0.00
  11
-719.71
  21
-500.10
  31
0.00
  0
LINE
  8
SPLAY
  10
-726.93
  20
-528.47
  30
0.00
  11
-705.28
  21
-499.77
  31
0.00
  0
LINE
  8
SPLAY
  10
-726.93
  20
-528.47
  30
0.00
  11
-732.56
  21
-517.98
  31
0.00
  0
LINE
  8
SPLAY
  10
-726.93
  20
-528.47
  30
0.00
  11
-744.44
  21
-502.69
  31
0.00
  0
LINE
  8
SPLAY
  10
-749.80
  20
-483.82
  30
0.00
  11
-736.06
  21
-484.38
  31
0.00
  0
LINE
  8
SPLAY
  10
-749.80
  20
-483.82
  30
0.00
  11
-731.68
  21
-467.64
  31
0.00
  0
LINE
  8
SPLAY
  10
-749.80
  20
-483.82
  30
0.00
  11
-733.58
  21
-454.38
  31
0.00
  0
LINE
  8
SPLAY
  10
-749.80
  20
-483.82
  30
0.00
  11
-735.59
  21
-425.30
  31
0.00
  0
LINE
  8
SPLAY
  10
-749.80
  20
-483.82
  30
0.00
  11
-747.32
  21
-516.32
  31
0.00
  0
LINE
  8
SPLAY
  10
-749.80
  20
-483.82
  30
0.00
  11
-720.06
  21
-484.20
  31
0.00
  0
LINE
  8
SPLAY
  10
-749.80
  20
-483.82
  30
0.00
  11
-712.04
  21
-482.38
  31
0.00
  0
LINE
  8
SPLAY
  10
-749.80
  20
-483.82
  30
0.00
  11
-779.06
  21
-477.45
  31
0.00
  0
LINE
  8
SPLAY
  10
-749.80
  20
-483.82
  30
0.00
  11
-774.82
  21
-482.07
  31
0.00
  0
LINE
  8
SPLAY
  10
-749.80
  20
-483.82
  30
0.00
  11
-760.57
  21
-486.49
  31
0.00
  0
LINE
  8
SPLAY
  10
-827.30
  20
-450.55
  30
0.00
  11
-816.09
  21
-449.51
  31
0.00
  0
LINE
  8
SPLAY
  10
-827.30
  20
-450.55
  30
0.00
  11
-800.11
  21
-448.43
  31
0.00
  0
LINE
  8
SPLAY
  10
-827.30
  20
-450.55
  30
0.00
  11
-804.02
  21
-489.84
  31
0.00
  0
LINE
  8
SPLAY
  10
-827.30
  20
-450.55
  30
0.00
  11
-811.98
  21
-490.66
  31
0.00
  0
LINE
  8
SPLAY
  10
-827.30
  20
-450.55
  30
0.00
  11
-827.30
  21
-454.15
  31
0.00
  0
LINE
  8
SPLAY
  10
-827.30
  20
-450.55
  30
0.00
  11
-812.22
  21
-428.35
  31
0.00
  0
LINE
  8
SPLAY
  10
-827.30
  20
-450.55
  30
0.00
  11
-827.30
  21
-435.39
  31
0.00
  0
LINE
  8
SPLAY
  10
-827.30
  20
-450.55
  30
0.00
  11
-827.30
  21
-448.49
  31
0.00
  0
LINE
  8
SPLAY
  10
-827.30
  20
-450.55
  30
0.00
  11
-827.30
  21
-430.71
  31
0.00
  0
LINE
  8
SPLAY
  10
-827.30
  20
-450.55
  30
0.00
  11
-827.30
  21
-435.39
  31
0.00
  0
LINE
  8
SPLAY
  10
-827.30
  20
-450.55
  30
0.00
  11
-827.30
  21
-461.65
  31
0.00
  0
LINE
  8
SPLAY
  10
-827.30
  20
-450.55
  30
0.00
  11
-827.30
  21
-480.96
  31
0.00
  0
LINE
  8
SPLAY
  10
-827.30
  20
-450.55
  30
0.00
  11
-827.30
  21
-463.80
  31
0.00
  0
LINE
  8
SPLAY
  10
-827.30
  20
-450.55
  30
0.00
  11
-827.30
  21
-462.90
  31
0.00
  0
LINE
  8
SPLAY
  10
-827.30
  20
-450.55
  30
0.00
  11
-827.30
  21
-468.76
  31
0.00
  0
LINE
  8
SPLAY
  10
-827.30
  20
-450.55
  30
0.00
  11
-827.30
  21
-444.00
  31
0.00
  0
LINE
  8
SPLAY
  10
-827.30
  20
-450.55
  30
0.00
  11
-827.30
  21
-443.27
  31
0.00
  0
POLYLINE
  8
L_wall
  66
1
  70
8
  75
0
  0
VERTEX
  8
L_wall
  10
-839.95
  20
-435.38
  30
0.00
  0
VERTEX
  8
L_wall
  10
-845.85
  20
-430.64
  30
0.00
  0
VERTEX
  8
L_wall
  10
-849.70
  20
-425.55
  30
0.00
  0
VERTEX
  8
L_wall
  10
-850.95
  20
-418.75
  30
0.00
  0
VERTEX
  8
L_wall
  10
-851.22
  20
-412.85
  30
0.00
  0
VERTEX
  8
L_wall
  10
-850.32
  20
-406.42
  30
0.00
  0
VERTEX
  8
L_wall
  10
-850.32
  20
-400.25
  30
0.00
  0
VERTEX
  8
L_wall
  10
-843.35
  20
-397.21
  30
0.00
  0
VERTEX
  8
L_wall
  10
-837.81
  20
-399.17
  30
0.00
  0
VERTEX
  8
L_wall
  10
-835.84
  20
-406.42
  30
0.00
  0
VERTEX
  8
L_wall
  10
-834.32
  20
-412.23
  30
0.00
  0
VERTEX
  8
L_wall
  10
-830.30
  20
-417.32
  30
0.00
  0
VERTEX
  8
L_wall
  10
-823.24
  20
-417.68
  30
0.00
  0
VERTEX
  8
L_wall
  10
-817.25
  20
-420.27
  30
0.00
  0
VERTEX
  8
L_wall
  10
-811.79
  20
-422.78
  30
0.00
  0
VERTEX
  8
L_wall
  10
-806.79
  20
-426.44
  30
0.00
  0
VERTEX
  8
L_wall
  10
-802.14
  20
-431.18
  30
0.00
  0
VERTEX
  8
L_wall
  10
-798.03
  20
-437.44
  30
0.00
  0
VERTEX
  8
L_wall
  10
-794.63
  20
-443.43
  30
0.00
  0
VERTEX
  8
L_wall
  10
-790.87
  20
-449.15
  30
0.00
  0
VERTEX
  8
L_wall
  10
-786.14
  20
-453.17
  30
0.00
  0
VERTEX
  8
L_wall
  10
-780.32
  20
-456.66
  30
0.00
  0
VERTEX
  8
L_wall
  10
-774.51
  20
-459.97
  30
0.00
  0
VERTEX
  8
L_wall
  10
-768.79
  20
-462.02
  30
0.00
  0
VERTEX
  8
L_wall
  10
-763.07
  20
-464.71
  30
0.00
  0
VERTEX
  8
L_wall
  10
-756.46
  20
-466.49
  30
0.00
  0
VERTEX
  8
L_wall
  10
-750.20
  20
-468.01
  30
0.00
  0
VERTEX
  8
L_wall
  10
-744.12
  20
-468.28
  30
0.00
  0
VERTEX
  8
L_wall
  10
-741.88
  20
-461.85
  30
0.00
  0
VERTEX
  8
L_wall
  10
-739.20
  20
-453.89
  30
0.00
  0
VERTEX
  8
L_wall
  10
-735.63
  20
-447.36
  30
0.00
  0
VERTEX
  8
L_wall
  10
-734.02
  20
-441.10
  30
0.00
  0
VERTEX
  8
L_wall
  10
-731.43
  20
-435.74
  30
0.00
  0
VERTEX
  8
L_wall
  10
-729.46
  20
-429.12
  30
0.00
  0
VERTEX
  8
L_wall
  10
-726.60
  20
-422.69
  30
0.00
  0
VERTEX
  8
L_wall
  10
-723.56
  20
-417.23
  30
0.00
  0
VERTEX
  8
L_wall
  10
-720.34
  20
-423.31
  30
0.00
  0
VERTEX
  8
L_wall
  10
-717.84
  20
-430.55
  30
0.00
  0
VERTEX
  8
L_wall
  10
-716.76
  20
-437.08
  30
0.00
  0
VERTEX
  8
L_wall
  10
-718.73
  20
-442.62
  30
0.00
  0
VERTEX
  8
L_wall
  10
-716.76
  20
-435.74
  30
0.00
  0
VERTEX
  8
L_wall
  10
-715.15
  20
-429.75
  30
0.00
  0
VERTEX
  8
L_wall
  10
-711.67
  20
-423.13
  30
0.00
  0
VERTEX
  8
L_wall
  10
-707.11
  20
-416.79
  30
0.00
  0
VERTEX
  8
L_wall
  10
-703.80
  20
-411.60
  30
0.00
  0
VERTEX
  8
L_wall
  10
-701.39
  20
-405.70
  30
0.00
  0
VERTEX
  8
L_wall
  10
-696.20
  20
-395.87
  30
0.00
  0
VERTEX
  8
L_wall
  10
-692.09
  20
-388.80
  30
0.00
  0
VERTEX
  8
L_wall
  10
-688.78
  20
-383.35
  30
0.00
  0
VERTEX
  8
L_wall
  10
-686.64
  20
-377.27
  30
0.00
  0
VERTEX
  8
L_wall
  10
-684.22
  20
-368.60
  30
0.00
  0
VERTEX
  8
L_wall
  10
-682.26
  20
-362.07
  30
0.00
  0
VERTEX
  8
L_wall
  10
-681.18
  20
-355.90
  30
0.00
  0
VERTEX
  8
L_wall
  10
-677.88
  20
-366.27
  30
0.00
  0
VERTEX
  8
L_wall
  10
-677.97
  20
-372.44
  30
0.00
  0
VERTEX
  8
L_wall
  10
-677.97
  20
-380.58
  30
0.00
  0
VERTEX
  8
L_wall
  10
-678.06
  20
-390.95
  30
0.00
  0
VERTEX
  8
L_wall
  10
-679.22
  20
-398.91
  30
0.00
  0
VERTEX
  8
L_wall
  10
-681.99
  20
-407.85
  30
0.00
  0
VERTEX
  8
L_wall
  10
-683.42
  20
-414.82
  30
0.00
  0
VERTEX
  8
L_wall
  10
-684.31
  20
-421.52
  30
0.00
  0
VERTEX
  8
L_wall
  10
-687.44
  20
-429.66
  30
0.00
  0
VERTEX
  8
L_wall
  10
-690.21
  20
-436.28
  30
0.00
  0
VERTEX
  8
L_wall
  10
-690.84
  20
-443.25
  30
0.00
  0
VERTEX
  8
L_wall
  10
-692.36
  20
-449.78
  30
0.00
  0
VERTEX
  8
L_wall
  10
-693.16
  20
-455.59
  30
0.00
  0
VERTEX
  8
L_wall
  10
-695.58
  20
-462.74
  30
0.00
  0
VERTEX
  8
L_wall
  10
-689.32
  20
-463.28
  30
0.00
  0
VERTEX
  8
L_wall
  10
-682.88
  20
-461.58
  30
0.00
  0
VERTEX
  8
L_wall
  10
-678.41
  20
-457.11
  30
0.00
  0
VERTEX
  8
L_wall
  10
-671.17
  20
-454.42
  30
0.00
  0
VERTEX
  8
L_wall
  10
-665.81
  20
-450.22
  30
0.00
  0
VERTEX
  8
L_wall
  10
-661.34
  20
-446.29
  30
0.00
  0
VERTEX
  8
L_wall
  10
-658.84
  20
-440.66
  30
0.00
  0
VERTEX
  8
L_wall
  10
-654.19
  20
-435.38
  30
0.00
  0
VERTEX
  8
L_wall
  10
-650.70
  20
-430.11
  30
0.00
  0
VERTEX
  8
L_wall
  10
-646.41
  20
-425.28
  30
0.00
  0
VERTEX
  8
L_wall
  10
-638.99
  20
-422.33
  30
0.00
  0
VERTEX
  8
L_wall
  10
-633.18
  20
-420.09
  30
0.00
  0
VERTEX
  8
L_wall
  10
-627.64
  20
-417.14
  30
0.00
  0
VERTEX
  8
L_wall
  10
-622.18
  20
-411.15
  30
0.00
  0
VERTEX
  8
L_wall
  10
-619.77
  20
-405.16
  30
0.00
  0
VERTEX
  8
L_wall
  10
-618.07
  20
-398.10
  30
0.00
  0
VERTEX
  8
L_wall
  10
-615.48
  20
-392.20
  30
0.00
  0
VERTEX
  8
L_wall
  10
-612.26
  20
-385.50
  30
0.00
  0
VERTEX
  8
L_wall
  10
-611.54
  20
-379.33
  30
0.00
  0
VERTEX
  8
L_wall
  10
-610.47
  20
-373.43
  30
0.00
  0
VERTEX
  8
L_wall
  10
-606.45
  20
-366.63
  30
0.00
  0
VERTEX
  8
L_wall
  10
-601.08
  20
-361.80
  30
0.00
  0
VERTEX
  8
L_wall
  10
-595.63
  20
-358.76
  30
0.00
  0
VERTEX
  8
L_wall
  10
-590.00
  20
-354.74
  30
0.00
  0
VERTEX
  8
L_wall
  10
-587.50
  20
-349.29
  30
0.00
  0
VERTEX
  8
L_wall
  10
-585.35
  20
-342.58
  30
0.00
  0
VERTEX
  8
L_wall
  10
-581.15
  20
-337.04
  30
0.00
  0
VERTEX
  8
L_wall
  10
-575.79
  20
-332.21
  30
0.00
  0
VERTEX
  8
L_wall
  10
-570.51
  20
-327.21
  30
0.00
  0
VERTEX
  8
L_wall
  10
-567.11
  20
-321.57
  30
0.00
  0
VERTEX
  8
L_wall
  10
-562.64
  20
-316.66
  30
0.00
  0
VERTEX
  8
L_wall
  10
-556.12
  20
-314.24
  30
0.00
  0
VERTEX
  8
L_wall
  10
-549.41
  20
-312.01
  30
0.00
  0
VERTEX
  8
L_wall
  10
-542.44
  20
-308.16
  30
0.00
  0
VERTEX
  8
L_wall
  10
-535.38
  20
-303.87
  30
0.00
  0
VERTEX
  8
L_wall
  10
-530.10
  20
-298.42
  30
0.00
  0
VERTEX
  8
L_wall
  10
-524.83
  20
-294.22
  30
0.00
  0
VERTEX
  8
L_wall
  10
-520.09
  20
-289.84
  30
0.00
  0
VERTEX
  8
L_wall
  10
-513.30
  20
-286.44
  30
0.00
  0
VERTEX
  8
L_wall
  10
-507.22
  20
-285.19
  30
0.00
  0
VERTEX
  8
L_wall
  10
-497.92
  20
-283.31
  30
0.00
  0
VERTEX
  8
L_wall
  10
-491.93
  20
-281.88
  30
0.00
  0
VERTEX
  8
L_wall
  10
-486.30
  20
-283.58
  30
0.00
  0
VERTEX
  8
L_wall
  10
-480.22
  20
-283.04
  30
0.00
  0
VERTEX
  8
L_wall
  10
-473.61
  20
-281.34
  30
0.00
  0
VERTEX
  8
L_wall
  10
-465.11
  20
-278.84
  30
0.00
  0
VERTEX
  8
L_wall
  10
-458.68
  20
-278.75
  30
0.00
  0
VERTEX
  8
L_wall
  10
-452.95
  20
-281.25
  30
0.00
  0
VERTEX
  8
L_wall
  10
-446.43
  20
-282.95
  30
0.00
  0
VERTEX
  8
L_wall
  10
-440.08
  20
-282.95
  30
0.00
  0
VERTEX
  8
L_wall
  10
-433.47
  20
-282.68
  30
0.00
  0
SEQEND
  0
POLYLINE
  8
L_wall
  66
1
  70
8
  75
0
  0
VERTEX
  8
L_wall
  10
-493.09
  20
-323.99
  30
0.00
  0
VERTEX
  8
L_wall
  10
-497.56
  20
-327.92
  30
0.00
  0
VERTEX
  8
L_wall
  10
-503.02
  20
-332.30
  30
0.00
  0
VERTEX
  8
L_wall
  10
-509.45
  20
-339.19
  30
0.00
  0
VERTEX
  8
L_wall
  10
-513.30
  20
-345.62
  30
0.00
  0
VERTEX
  8
L_wall
  10
-516.34
  20
-351.08
  30
0.00
  0
VERTEX
  8
L_wall
  10
-519.02
  20
-357.07
  30
0.00
  0
VERTEX
  8
L_wall
  10
-522.42
  20
-364.13
  30
0.00
  0
VERTEX
  8
L_wall
  10
-524.74
  20
-371.19
  30
0.00
  0
VERTEX
  8
L_wall
  10
-528.58
  20
-376.91
  30
0.00
  0
VERTEX
  8
L_wall
  10
-534.13
  20
-378.97
  30
0.00
  0
VERTEX
  8
L_wall
  10
-540.47
  20
-379.68
  30
0.00
  0
VERTEX
  8
L_wall
  10
-546.73
  20
-381.92
  30
0.00
  0
VERTEX
  8
L_wall
  10
-551.56
  20
-387.73
  30
0.00
  0
VERTEX
  8
L_wall
  10
-555.22
  20
-393.54
  30
0.00
  0
VERTEX
  8
L_wall
  10
-559.87
  20
-397.48
  30
0.00
  0
VERTEX
  8
L_wall
  10
-560.50
  20
-403.73
  30
0.00
  0
VERTEX
  8
L_wall
  10
-561.75
  20
-409.72
  30
0.00
  0
VERTEX
  8
L_wall
  10
-562.91
  20
-415.80
  30
0.00
  0
VERTEX
  8
L_wall
  10
-565.15
  20
-422.96
  30
0.00
  0
VERTEX
  8
L_wall
  10
-566.67
  20
-429.21
  30
0.00
  0
VERTEX
  8
L_wall
  10
-568.10
  20
-435.65
  30
0.00
  0
VERTEX
  8
L_wall
  10
-570.60
  20
-442.00
  30
0.00
  0
VERTEX
  8
L_wall
  10
-574.89
  20
-446.91
  30
0.00
  0
VERTEX
  8
L_wall
  10
-577.93
  20
-452.37
  30
0.00
  0
VERTEX
  8
L_wall
  10
-581.69
  20
-458.00
  30
0.00
  0
VERTEX
  8
L_wall
  10
-585.71
  20
-463.10
  30
0.00
  0
VERTEX
  8
L_wall
  10
-590.98
  20
-468.55
  30
0.00
  0
VERTEX
  8
L_wall
  10
-595.90
  20
-472.75
  30
0.00
  0
VERTEX
  8
L_wall
  10
-601.00
  20
-477.85
  30
0.00
  0
VERTEX
  8
L_wall
  10
-606.81
  20
-481.42
  30
0.00
  0
VERTEX
  8
L_wall
  10
-611.81
  20
-485.89
  30
0.00
  0
VERTEX
  8
L_wall
  10
-617.18
  20
-490.63
  30
0.00
  0
VERTEX
  8
L_wall
  10
-622.27
  20
-494.30
  30
0.00
  0
VERTEX
  8
L_wall
  10
-626.38
  20
-498.77
  30
0.00
  0
VERTEX
  8
L_wall
  10
-628.08
  20
-504.94
  30
0.00
  0
VERTEX
  8
L_wall
  10
-630.76
  20
-510.30
  30
0.00
  0
VERTEX
  8
L_wall
  10
-635.68
  20
-517.19
  30
0.00
  0
VERTEX
  8
L_wall
  10
-641.40
  20
-524.52
  30
0.00
  0
VERTEX
  8
L_wall
  10
-645.25
  20
-529.52
  30
0.00
  0
VERTEX
  8
L_wall
  10
-649.54
  20
-534.26
  30
0.00
  0
VERTEX
  8
L_wall
  10
-655.53
  20
-536.23
  30
0.00
  0
VERTEX
  8
L_wall
  10
-661.87
  20
-534.71
  30
0.00
  0
VERTEX
  8
L_wall
  10
-669.29
  20
-532.38
  30
0.00
  0
VERTEX
  8
L_wall
  10
-676.09
  20
-528.90
  30
0.00
  0
VERTEX
  8
L_wall
  10
-681.54
  20
-525.68
  30
0.00
  0
VERTEX
  8
L_wall
  10
-687.53
  20
-524.34
  30
0.00
  0
VERTEX
  8
L_wall
  10
-693.52
  20
-527.29
  30
0.00
  0
VERTEX
  8
L_wall
  10
-700.32
  20
-529.52
  30
0.00
  0
VERTEX
  8
L_wall
  10
-708.09
  20
-530.77
  30
0.00
  0
VERTEX
  8
L_wall
  10
-713.90
  20
-532.56
  30
0.00
  0
VERTEX
  8
L_wall
  10
-721.06
  20
-531.67
  30
0.00
  0
VERTEX
  8
L_wall
  10
-727.22
  20
-530.95
  30
0.00
  0
VERTEX
  8
L_wall
  10
-733.39
  20
-529.97
  30
0.00
  0
VERTEX
  8
L_wall
  10
-740.01
  20
-527.20
  30
0.00
  0
VERTEX
  8
L_wall
  10
-744.83
  20
-523.00
  30
0.00
  0
VERTEX
  8
L_wall
  10
-748.32
  20
-517.72
  30
0.00
  0
VERTEX
  8
L_wall
  10
-751.36
  20
-512.36
  30
0.00
  0
VERTEX
  8
L_wall
  10
-755.20
  20
-507.26
  30
0.00
  0
VERTEX
  8
L_wall
  10
-761.37
  20
-503.86
  30
0.00
  0
VERTEX
  8
L_wall
  10
-764.95
  20
-497.70
  30
0.00
  0
VERTEX
  8
L_wall
  10
-768.08
  20
-492.15
  30
0.00
  0
VERTEX
  8
L_wall
  10
-773.17
  20
-484.73
  30
0.00
  0
VERTEX
  8
L_wall
  10
-777.11
  20
-480.17
  30
0.00
  0
VERTEX
  8
L_wall
  10
-783.54
  20
-477.76
  30
0.00
  0
VERTEX
  8
L_wall
  10
-790.52
  20
-477.58
  30
0.00
  0
VERTEX
  8
L_wall
  10
-796.77
  20
-479.01
  30
0.00
  0
VERTEX
  8
L_wall
  10
-801.96
  20
-485.09
  30
0.00
  0
VERTEX
  8
L_wall
  10
-807.50
  20
-488.40
  30
0.00
  0
VERTEX
  8
L_wall
  10
-813.94
  20
-488.40
  30
0.00
  0
VERTEX
  8
L_wall
  10
-820.46
  20
-485.18
  30
0.00
  0
VERTEX
  8
L_wall
  10
-822.79
  20
-479.01
  30
0.00
  0
VERTEX
  8
L_wall
  10
-827.26
  20
-473.91
  30
0.00
  0
VERTEX
  8
L_wall
  10
-832.00
  20
-470.07
  30
0.00
  0
VERTEX
  8
L_wall
  10
-835.84
  20
-464.71
  30
0.00
  0
VERTEX
  8
L_wall
  10
-839.77
  20
-458.63
  30
0.00
  0
VERTEX
  8
L_wall
  10
-839.51
  20
-451.65
  30
0.00
  0
VERTEX
  8
L_wall
  10
-840.94
  20
-445.57
  30
0.00
  0
VERTEX
  8
L_wall
  10
-843.26
  20
-438.24
  30
0.00
  0
SEQEND
  0
POLYLINE
  8
L_wall
  66
1
  70
8
  75
0
  0
VERTEX
  8
L_wall
  10
-465.11
  20
-319.96
  30
0.00
  0
VERTEX
  8
L_wall
  10
-456.80
  20
-318.18
  30
0.00
  0
VERTEX
  8
L_wall
  10
-450.99
  20
-316.83
  30
0.00
  0
VERTEX
  8
L_wall
  10
-443.57
  20
-313.44
  30
0.00
  0
VERTEX
  8
L_wall
  10
-434.72
  20
-311.20
  30
0.00
  0
VERTEX
  8
L_wall
  10
-426.85
  20
-310.49
  30
0.00
  0
VERTEX
  8
L_wall
  10
-418.54
  20
-310.49
  30
0.00
  0
VERTEX
  8
L_wall
  10
-411.47
  20
-310.49
  30
0.00
  0
VERTEX
  8
L_wall
  10
-405.57
  20
-311.02
  30
0.00
  0
VERTEX
  8
L_wall
  10
-399.41
  20
-312.28
  30
0.00
  0
VERTEX
  8
L_wall
  10
-392.25
  20
-313.97
  30
0.00
  0
VERTEX
  8
L_wall
  10
-384.92
  20
-317.73
  30
0.00
  0
VERTEX
  8
L_wall
  10
-377.77
  20
-318.18
  30
0.00
  0
VERTEX
  8
L_wall
  10
-369.73
  20
-317.55
  30
0.00
  0
VERTEX
  8
L_wall
  10
-363.20
  20
-317.37
  30
0.00
  0
VERTEX
  8
L_wall
  10
-355.51
  20
-317.55
  30
0.00
  0
VERTEX
  8
L_wall
  10
-349.43
  20
-318.18
  30
0.00
  0
SEQEND
  0
POLYLINE
  8
L_wall
  66
1
  70
8
  75
0
  0
VERTEX
  8
L_wall
  10
-344.07
  20
-313.62
  30
0.00
  0
VERTEX
  8
L_wall
  10
-336.56
  20
-309.50
  30
0.00
  0
VERTEX
  8
L_wall
  10
-330.21
  20
-304.32
  30
0.00
  0
VERTEX
  8
L_wall
  10
-324.76
  20
-299.31
  30
0.00
  0
VERTEX
  8
L_wall
  10
-320.29
  20
-295.29
  30
0.00
  0
VERTEX
  8
L_wall
  10
-315.02
  20
-291.89
  30
0.00
  0
VERTEX
  8
L_wall
  10
-308.13
  20
-287.06
  30
0.00
  0
VERTEX
  8
L_wall
  10
-299.82
  20
-282.06
  30
0.00
  0
VERTEX
  8
L_wall
  10
-292.58
  20
-277.68
  30
0.00
  0
VERTEX
  8
L_wall
  10
-285.96
  20
-272.94
  30
0.00
  0
VERTEX
  8
L_wall
  10
-278.54
  20
-268.74
  30
0.00
  0
VERTEX
  8
L_wall
  10
-273.09
  20
-264.71
  30
0.00
  0
VERTEX
  8
L_wall
  10
-268.44
  20
-260.51
  30
0.00
  0
VERTEX
  8
L_wall
  10
-262.27
  20
-255.51
  30
0.00
  0
VERTEX
  8
L_wall
  10
-255.75
  20
-252.55
  30
0.00
  0
VERTEX
  8
L_wall
  10
-248.86
  20
-249.96
  30
0.00
  0
VERTEX
  8
L_wall
  10
-241.44
  20
-248.44
  30
0.00
  0
VERTEX
  8
L_wall
  10
-232.77
  20
-248.44
  30
0.00
  0
VERTEX
  8
L_wall
  10
-227.23
  20
-245.31
  30
0.00
  0
VERTEX
  8
L_wall
  10
-224.19
  20
-240.22
  30
0.00
  0
VERTEX
  8
L_wall
  10
-220.43
  20
-235.57
  30
0.00
  0
VERTEX
  8
L_wall
  10
-221.42
  20
-229.04
  30
0.00
  0
VERTEX
  8
L_wall
  10
-215.16
  20
-231.19
  30
0.00
  0
VERTEX
  8
L_wall
  10
-208.54
  20
-231.81
  30
0.00
  0
VERTEX
  8
L_wall
  10
-202.91
  20
-235.57
  30
0.00
  0
VERTEX
  8
L_wall
  10
-197.37
  20
-239.14
  30
0.00
  0
VERTEX
  8
L_wall
  10
-192.81
  20
-244.60
  30
0.00
  0
SEQEND
  0
POLYLINE
  8
L_wall
  66
1
  70
8
  75
0
  0
VERTEX
  8
L_wall
  10
-195.40
  20
-240.40
  30
0.00
  0
VERTEX
  8
L_wall
  10
-191.11
  20
-234.76
  30
0.00
  0
VERTEX
  8
L_wall
  10
-189.68
  20
-228.33
  30
0.00
  0
VERTEX
  8
L_wall
  10
-189.15
  20
-222.07
  30
0.00
  0
VERTEX
  8
L_wall
  10
-187.63
  20
-215.90
  30
0.00
  0
VERTEX
  8
L_wall
  10
-186.20
  20
-209.46
  30
0.00
  0
VERTEX
  8
L_wall
  10
-184.32
  20
-203.47
  30
0.00
  0
VERTEX
  8
L_wall
  10
-180.83
  20
-198.20
  30
0.00
  0
VERTEX
  8
L_wall
  10
-175.38
  20
-193.91
  30
0.00
  0
VERTEX
  8
L_wall
  10
-169.21
  20
-190.15
  30
0.00
  0
VERTEX
  8
L_wall
  10
-163.58
  20
-186.13
  30
0.00
  0
VERTEX
  8
L_wall
  10
-156.34
  20
-182.20
  30
0.00
  0
VERTEX
  8
L_wall
  10
-149.99
  20
-179.69
  30
0.00
  0
VERTEX
  8
L_wall
  10
-143.73
  20
-178.17
  30
0.00
  0
VERTEX
  8
L_wall
  10
-136.85
  20
-175.04
  30
0.00
  0
VERTEX
  8
L_wall
  10
-129.52
  20
-172.36
  30
0.00
  0
VERTEX
  8
L_wall
  10
-122.28
  20
-170.66
  30
0.00
  0
VERTEX
  8
L_wall
  10
-114.23
  20
-167.00
  30
0.00
  0
VERTEX
  8
L_wall
  10
-107.44
  20
-164.49
  30
0.00
  0
VERTEX
  8
L_wall
  10
-101.98
  20
-162.17
  30
0.00
  0
VERTEX
  8
L_wall
  10
-94.74
  20
-158.15
  30
0.00
  0
SEQEND
  0
POLYLINE
  8
L_wall
  66
1
  70
8
  75
0
  0
VERTEX
  8
L_wall
  10
-117.81
  20
-112.46
  30
0.00
  0
VERTEX
  8
L_wall
  10
-126.12
  20
-114.88
  30
0.00
  0
VERTEX
  8
L_wall
  10
-140.25
  20
-118.72
  30
0.00
  0
VERTEX
  8
L_wall
  10
-146.41
  20
-120.42
  30
0.00
  0
VERTEX
  8
L_wall
  10
-159.47
  20
-124.80
  30
0.00
  0
VERTEX
  8
L_wall
  10
-168.58
  20
-129.54
  30
0.00
  0
VERTEX
  8
L_wall
  10
-176.00
  20
-134.28
  30
0.00
  0
VERTEX
  8
L_wall
  10
-182.80
  20
-138.57
  30
0.00
  0
VERTEX
  8
L_wall
  10
-186.91
  20
-143.93
  30
0.00
  0
VERTEX
  8
L_wall
  10
-191.29
  20
-149.03
  30
0.00
  0
VERTEX
  8
L_wall
  10
-198.09
  20
-154.66
  30
0.00
  0
VERTEX
  8
L_wall
  10
-204.34
  20
-157.07
  30
0.00
  0
VERTEX
  8
L_wall
  10
-210.87
  20
-161.90
  30
0.00
  0
VERTEX
  8
L_wall
  10
-219.36
  20
-170.66
  30
0.00
  0
VERTEX
  8
L_wall
  10
-224.10
  20
-174.51
  30
0.00
  0
VERTEX
  8
L_wall
  10
-230.45
  20
-179.33
  30
0.00
  0
VERTEX
  8
L_wall
  10
-236.88
  20
-184.16
  30
0.00
  0
VERTEX
  8
L_wall
  10
-241.80
  20
-187.92
  30
0.00
  0
VERTEX
  8
L_wall
  10
-249.94
  20
-192.66
  30
0.00
  0
VERTEX
  8
L_wall
  10
-257.27
  20
-197.04
  30
0.00
  0
VERTEX
  8
L_wall
  10
-262.72
  20
-199.99
  30
0.00
  0
VERTEX
  8
L_wall
  10
-268.35
  20
-204.01
  30
0.00
  0
VERTEX
  8
L_wall
  10
-273.71
  20
-208.12
  30
0.00
  0
VERTEX
  8
L_wall
  10
-278.81
  20
-212.06
  30
0.00
  0
VERTEX
  8
L_wall
  10
-285.60
  20
-216.97
  30
0.00
  0
VERTEX
  8
L_wall
  10
-291.77
  20
-220.46
  30
0.00
  0
VERTEX
  8
L_wall
  10
-298.66
  20
-224.39
  30
0.00
  0
VERTEX
  8
L_wall
  10
-306.17
  20
-228.95
  30
0.00
  0
VERTEX
  8
L_wall
  10
-312.96
  20
-232.98
  30
0.00
  0
VERTEX
  8
L_wall
  10
-320.83
  20
-237.89
  30
0.00
  0
VERTEX
  8
L_wall
  10
-326.99
  20
-241.83
  30
0.00
  0
VERTEX
  8
L_wall
  10
-333.16
  20
-245.67
  30
0.00
  0
VERTEX
  8
L_wall
  10
-340.32
  20
-248.26
  30
0.00
  0
VERTEX
  8
L_wall
  10
-345.86
  20
-251.12
  30
0.00
  0
VERTEX
  8
L_wall
  10
-352.38
  20
-253.72
  30
0.00
  0
VERTEX
  8
L_wall
  10
-369.91
  20
-262.39
  30
0.00
  0
VERTEX
  8
L_wall
  10
-376.97
  20
-266.86
  30
0.00
  0
VERTEX
  8
L_wall
  10
-383.05
  20
-269.27
  30
0.00
  0
VERTEX
  8
L_wall
  10
-388.68
  20
-271.51
  30
0.00
  0
VERTEX
  8
L_wall
  10
-395.20
  20
-273.47
  30
0.00
  0
VERTEX
  8
L_wall
  10
-400.75
  20
-275.44
  30
0.00
  0
VERTEX
  8
L_wall
  10
-407.45
  20
-277.59
  30
0.00
  0
VERTEX
  8
L_wall
  10
-412.91
  20
-279.82
  30
0.00
  0
VERTEX
  8
L_wall
  10
-420.77
  20
-280.81
  30
0.00
  0
VERTEX
  8
L_wall
  10
-428.73
  20
-279.55
  30
0.00
  0
VERTEX
  8
L_wall
  10
-435.52
  20
-278.30
  30
0.00
  0
VERTEX
  8
L_wall
  10
-445.98
  20
-280.81
  30
0.00
  0
VERTEX
  8
L_wall
  10
-453.04
  20
-283.13
  30
0.00
  0
VERTEX
  8
L_wall
  10
-462.25
  20
-280.18
  30
0.00
  0
SEQEND
  0
POLYLINE
  8
L_wall
  66
1
  70
8
  75
0
  0
VERTEX
  8
L_wall
  10
110.42
  20
-137.94
  30
0.00
  0
VERTEX
  8
L_wall
  10
101.93
  20
-134.10
  30
0.00
  0
VERTEX
  8
L_wall
  10
91.29
  20
-131.59
  30
0.00
  0
VERTEX
  8
L_wall
  10
83.42
  20
-129.54
  30
0.00
  0
VERTEX
  8
L_wall
  10
75.38
  20
-126.50
  30
0.00
  0
VERTEX
  8
L_wall
  10
68.32
  20
-124.35
  30
0.00
  0
VERTEX
  8
L_wall
  10
58.39
  20
-123.64
  30
0.00
  0
VERTEX
  8
L_wall
  10
51.42
  20
-123.99
  30
0.00
  0
VERTEX
  8
L_wall
  10
45.61
  20
-125.87
  30
0.00
  0
VERTEX
  8
L_wall
  10
38.10
  20
-129.00
  30
0.00
  0
VERTEX
  8
L_wall
  10
30.95
  20
-130.79
  30
0.00
  0
VERTEX
  8
L_wall
  10
23.26
  20
-132.85
  30
0.00
  0
VERTEX
  8
L_wall
  10
15.57
  20
-133.47
  30
0.00
  0
VERTEX
  8
L_wall
  10
9.67
  20
-134.10
  30
0.00
  0
VERTEX
  8
L_wall
  10
2.16
  20
-136.15
  30
0.00
  0
VERTEX
  8
L_wall
  10
-3.92
  20
-137.58
  30
0.00
  0
VERTEX
  8
L_wall
  10
-10.08
  20
-139.37
  30
0.00
  0
VERTEX
  8
L_wall
  10
-15.89
  20
-140.89
  30
0.00
  0
VERTEX
  8
L_wall
  10
-23.14
  20
-141.96
  30
0.00
  0
VERTEX
  8
L_wall
  10
-29.04
  20
-141.96
  30
0.00
  0
VERTEX
  8
L_wall
  10
-36.01
  20
-139.46
  30
0.00
  0
VERTEX
  8
L_wall
  10
-41.64
  20
-134.37
  30
0.00
  0
VERTEX
  8
L_wall
  10
-48.17
  20
-129.90
  30
0.00
  0
VERTEX
  8
L_wall
  10
-53.08
  20
-125.42
  30
0.00
  0
VERTEX
  8
L_wall
  10
-59.97
  20
-129.54
  30
0.00
  0
VERTEX
  8
L_wall
  10
-67.12
  20
-134.01
  30
0.00
  0
VERTEX
  8
L_wall
  10
-74.00
  20
-138.57
  30
0.00
  0
VERTEX
  8
L_wall
  10
-78.83
  20
-143.75
  30
0.00
  0
VERTEX
  8
L_wall
  10
-85.36
  20
-147.42
  30
0.00
  0
VERTEX
  8
L_wall
  10
-90.63
  20
-150.46
  30
0.00
  0
VERTEX
  8
L_wall
  10
-96.08
  20
-153.77
  30
0.00
  0
VERTEX
  8
L_wall
  10
-100.37
  20
-158.50
  30
0.00
  0
VERTEX
  8
L_wall
  10
-106.90
  20
-160.38
  30
0.00
  0
SEQEND
  0
POLYLINE
  8
L_wall
  66
1
  70
8
  75
0
  0
VERTEX
  8
L_wall
  10
-56.39
  20
-69.82
  30
0.00
  0
VERTEX
  8
L_wall
  10
-50.04
  20
-69.55
  30
0.00
  0
VERTEX
  8
L_wall
  10
-43.88
  20
-70.80
  30
0.00
  0
VERTEX
  8
L_wall
  10
-37.08
  20
-72.32
  30
0.00
  0
VERTEX
  8
L_wall
  10
-29.66
  20
-73.39
  30
0.00
  0
VERTEX
  8
L_wall
  10
-20.19
  20
-73.93
  30
0.00
  0
VERTEX
  8
L_wall
  10
-11.25
  20
-73.93
  30
0.00
  0
VERTEX
  8
L_wall
  10
-4.45
  20
-73.21
  30
0.00
  0
VERTEX
  8
L_wall
  10
3.06
  20
-71.34
  30
0.00
  0
VERTEX
  8
L_wall
  10
9.76
  20
-70.35
  30
0.00
  0
VERTEX
  8
L_wall
  10
17.09
  20
-70.71
  30
0.00
  0
VERTEX
  8
L_wall
  10
26.03
  20
-71.25
  30
0.00
  0
VERTEX
  8
L_wall
  10
33.45
  20
-72.41
  30
0.00
  0
VERTEX
  8
L_wall
  10
40.25
  20
-74.38
  30
0.00
  0
VERTEX
  8
L_wall
  10
46.50
  20
-75.90
  30
0.00
  0
VERTEX
  8
L_wall
  10
52.58
  20
-78.58
  30
0.00
  0
VERTEX
  8
L_wall
  10
58.84
  20
-81.89
  30
0.00
  0
VERTEX
  8
L_wall
  10
67.15
  20
-85.46
  30
0.00
  0
VERTEX
  8
L_wall
  10
74.31
  20
-88.41
  30
0.00
  0
VERTEX
  8
L_wall
  10
79.67
  20
-91.90
  30
0.00
  0
VERTEX
  8
L_wall
  10
85.30
  20
-94.22
  30
0.00
  0
VERTEX
  8
L_wall
  10
91.20
  20
-95.65
  30
0.00
  0
VERTEX
  8
L_wall
  10
97.10
  20
-97.26
  30
0.00
  0
VERTEX
  8
L_wall
  10
103.36
  20
-97.80
  30
0.00
  0
VERTEX
  8
L_wall
  10
107.56
  20
-93.24
  30
0.00
  0
VERTEX
  8
L_wall
  10
113.64
  20
-90.20
  30
0.00
  0
VERTEX
  8
L_wall
  10
117.84
  20
-85.19
  30
0.00
  0
VERTEX
  8
L_wall
  10
121.42
  20
-79.74
  30
0.00
  0
VERTEX
  8
L_wall
  10
125.53
  20
-73.84
  30
0.00
  0
VERTEX
  8
L_wall
  10
128.12
  20
-67.40
  30
0.00
  0
VERTEX
  8
L_wall
  10
132.24
  20
-59.98
  30
0.00
  0
VERTEX
  8
L_wall
  10
138.58
  20
-54.53
  30
0.00
  0
VERTEX
  8
L_wall
  10
142.34
  20
-49.25
  30
0.00
  0
VERTEX
  8
L_wall
  10
143.95
  20
-41.66
  30
0.00
  0
VERTEX
  8
L_wall
  10
144.84
  20
-32.98
  30
0.00
  0
VERTEX
  8
L_wall
  10
144.84
  20
-25.47
  30
0.00
  0
VERTEX
  8
L_wall
  10
145.02
  20
-19.13
  30
0.00
  0
VERTEX
  8
L_wall
  10
145.56
  20
-13.23
  30
0.00
  0
VERTEX
  8
L_wall
  10
145.56
  20
-5.98
  30
0.00
  0
VERTEX
  8
L_wall
  10
145.56
  20
0.19
  30
0.00
  0
VERTEX
  8
L_wall
  10
145.56
  20
6.89
  30
0.00
  0
VERTEX
  8
L_wall
  10
141.98
  20
11.99
  30
0.00
  0
VERTEX
  8
L_wall
  10
137.87
  20
16.37
  30
0.00
  0
VERTEX
  8
L_wall
  10
133.31
  20
21.73
  30
0.00
  0
VERTEX
  8
L_wall
  10
129.73
  20
26.38
  30
0.00
  0
VERTEX
  8
L_wall
  10
125.80
  20
31.30
  30
0.00
  0
VERTEX
  8
L_wall
  10
121.69
  20
36.21
  30
0.00
  0
VERTEX
  8
L_wall
  10
117.22
  20
42.11
  30
0.00
  0
VERTEX
  8
L_wall
  10
112.30
  20
47.84
  30
0.00
  0
VERTEX
  8
L_wall
  10
105.42
  20
54.54
  30
0.00
  0
SEQEND
  0
TEXT
  8
STATION
  10
100.00
  20
-120.00
  30
0.00
  40
6.00
  50
0.00
  51
0.00
  1
4
  7
MyStyle
  100
AcDbText
  0
TEXT
  8
STATION
  10
163.21
  20
-51.80
  30
0.00
  40
6.00
  50
0.00
  51
0.00
  1
3
  7
MyStyle
  100
AcDbText
  0
TEXT
  8
STATION
  10
1.60
  20
-108.23
  30
0.00
  40
6.00
  50
0.00
  51
0.00
  1
5
  7
MyStyle
  100
AcDbText
  0
TEXT
  8
STATION
  10
-99.99
  20
-95.18
  30
0.00
  40
6.00
  50
0.00
  51
0.00
  1
6
  7
MyStyle
  100
AcDbText
  0
TEXT
  8
STATION
  10
-66.05
  20
-125.62
  30
0.00
  40
6.00
  50
0.00
  51
0.00
  1
7
  7
MyStyle
  100
AcDbText
  0
TEXT
  8
STATION
  10
-205.99
  20
-187.33
  30
0.00
  40
6.00
  50
0.00
  51
0.00
  1
8
  7
MyStyle
  100
AcDbText
  0
TEXT
  8
STATION
  10
-259.98
  20
-226.80
  30
0.00
  40
6.00
  50
0.00
  51
0.00
  1
9
  7
MyStyle
  100
AcDbText
  0
TEXT
  8
STATION
  10
-395.70
  20
-292.70
  30
0.00
  40
6.00
  50
0.00
  51
0.00
  1
10
  7
MyStyle
  100
AcDbText
  0
TEXT
  8
STATION
  10
-474.18
  20
-306.78
  30
0.00
  40
6.00
  50
0.00
  51
0.00
  1
11
  7
MyStyle
  100
AcDbText
  0
TEXT
  8
STATION
  10
-543.44
  20
-351.45
  30
0.00
  40
6.00
  50
0.00
  51
0.00
  1
12
  7
MyStyle
  100
AcDbText
  0
TEXT
  8
STATION
  10
-500.74
  20
-317.00
  30
0.00
  40
6.00
  50
0.00
  51
0.00
  1
13
  7
MyStyle
  100
AcDbText
  0
TEXT
  8
STATION
  10
-547.19
  20
-351.03
  30
0.00
  40
6.00
  50
0.00
  51
0.00
  1
14
  7
MyStyle
  100
AcDbText
  0
TEXT
  8
STATION
  10
-599.36
  20
-408.90
  30
0.00
  40
6.00
  50
0.00
  51
0.00
  1
15
  7
MyStyle
  100
AcDbText
  0
TEXT
  8
STATION
  10
-672.23
  20
-507.49
  30
0.00
  40
6.00
  50
0.00
  51
0.00
  1
16
  7
MyStyle
  100
AcDbText
  0
TEXT
  8
STATION
  10
-726.93
  20
-528.47
  30
0.00
  40
6.00
  50
0.00
  51
0.00
  1
17
  7
MyStyle
  100
AcDbText
  0
TEXT
  8
STATION
  10
-749.80
  20
-483.82
  30
0.00
  40
6.00
  50
0.00
  51
0.00
  1
18
  7
MyStyle
  100
AcDbText
  0
TEXT
  8
STATION
  10
-827.30
  20
-450.55
  30
0.00
  40
6.00
  50
0.00
  51
0.00
  1
19
  7
MyStyle
  100
AcDbText
  0
TEXT
  8
STATION
  10
184.23
  20
-2.41
  30
0.00
  40
6.00
  50
0.00
  51
0.00
  1
2
  7
MyStyle
  100
AcDbText
  0
TEXT
  8
STATION
  10
119.40
  20
58.55
  30
0.00
  40
6.00
  50
0.00
  51
0.00
  1
1
  7
MyStyle
  100
AcDbText
  0
ENDSEC
  0
EOF
